Oops, an error
Loading. Please wait.

La Segunda Ley Tab

version 2
version 2

Whole song

29 views 1 this week
no commentswrite comment
1 2 3 4 5
3 more votes to show rating
add to favorites
launch autoscroll
font size
0
reset
how to read this tab
guitar tuner
×
Best way to learn
"La Segunda Ley"
Autoscroll
slow
fast
+/-
esc
set tempo
stop
Ésta es la intro del acustico de 2da ley

e|-----------------------------------------------|
B|----------------------------------5------------|
G|------------------------------------5------0---|
D|----5-55-55---5---5-55-55---5---55---5---------|
A|--3---------2---0------------------------------|
E|--------------------------3---1----------1---1-|

"Y sigues aqui..."

e|----------------------------------------------------------|
B|----------------------------------5--------------5--------|
G|-----------------------------------5-----0--------5-------|
D|----5-55-55---5---5-55-55---5---55----5--------55---5-----|
A|--3--------2---0------------------------------------------|
E|-------------------------3---1---------1----1---------1-3-|

e|--------------------------------|
B|--------------------------------|
G|--------------------------------|      Se repite
D|--------5-----------------------|
A|--3---2----0--------------------|
E|---------------3---1------------|

Luego:

D#5                                 C5                  C5 D5 D#5
   Dale más fuerte nada te puede parar (dale más fuerte)

Lo demás es igual que el original.

Cualquier duda a am4theu5@
Suggest correction
Give kudos to tab author, rate the tab!
1 2 3 4 5
comments
print report bad tab
guest
You may want to rate the tab now too:
select rating
Wanna post a correction for this tab? Suggest correction