Oops, an error
Loading. Please wait.

Mateografo Tab

by Gaia
8 views 1 this week
no commentswrite comment
1 2 3 4 5
3 more votes to show rating
add to favorites
launch autoscroll
font size
0
reset
how to read this tab
guitar tuner
Autoscroll
slow
fast
+/-
esc
set tempo
stop
Help us to improve Ultimate-Guitar.com Take our survey!
×
weno gnt aca les va una muy wena cancion d gaia un grupo muy weno
peruano espero k le guste
alguna consulta o algo me avisan mi correo va a estar debajo.

Intro
|-----------------------------------------
|-----------------------------------------
|--------8-----------------8--------------
|-----11---11----11-----11---11---11------
|---9----------9------9----------9--------
|-----------------------------------------

-----------------------------------------|
-----------------------------------------|
-----8-------8----------8-------8--------|
-------11------11----11---11-------------|
--7--------7-----------------------------|
-----------------7-----------7-----------|

ser la cosas en grande nunca es suficiente
dar un paso adelante, siempre estar conciente ...

|---2------
|---2------
|---24-----
|---24-----
|---2------
|----------
    SI5

        SI5                      MI
de que mañana la rapidez de tus dias
                      SI5
sera igual a la de tu mente
                 MI
sera igual a la corriente
             SI5
sera igual...


|-----------------------------------------
|-----------------------------------------
|--------8-----------------8--------------
|-----11---11----11-----11---11---11------
|---9----------9------9----------9--------
|-----------------------------------------

-----------------------------------------|
-----------------------------------------|
-----8-------8----------8-------8--------|
-------11------11----11---11-------------|
--7--------7-----------------------------|
-----------------7-----------7-----------|

Una gran sonrisa, un premio o dos ser omnipotente
ser consecuente, constante eficaz y eficiente


       SI5                    MI
cuando mañana todo sea competicion
                     SI5
entre tus dias y tu mente
                     MI
tu corazon y la corriente
          SI5
entre tu..


|-----------------------------------------
|-----------------------------------------
|--------8-----------------8--------------
|-----11---11----11-----11---11---11------
|---9----------9------9----------9--------
|-----------------------------------------

-----------------------------------------|
-----------------------------------------|
-----8-------8----------8-------8--------|
-------11------11----11---11-------------|
--7--------7-----------------------------|
-----------------7-----------7-----------|


No soñar, pisar de escalzo y mucho mas fuerte
ser uno mismo individual nada y todo de otra gente


        SI5                   MI                      SI5
Porque mañana sabras que eres tu entre tus dias y tu mente
                    MI                SI5
tu corazon y la corriente que eres..
                              MI                     SI5
sino el compromiso de alguien mas el jefe de alguien mas
                   MI                                           SI5
el piso de alguien mas el sueño, el peon, la sonrisa de alguien mas
                   MI                       SI5
la vida de alguien mas, el sueño de alguien mas
                      MI                                               SI5
la sonrisa de alguien mas el cuerpo, la experiencia,la vida de alguien mas
                      MI                SI5
el hijo de mama una mentira, un antifaz


cualkiero consulta mi correo es diego_2186@
Suggest correction
Give kudos to tab author, rate the tab!
1 2 3 4 5
comments
print report bad tab
guest
You may want to rate the tab now too:
select rating
Wanna post a correction for this tab? Suggest correction