Oops, an error
Loading. Please wait.

Pegaso Tab

by Gaia
29 views 1 this week
no commentswrite comment
1 2 3 4 5
3 more votes to show rating
add to favorites
launch autoscroll
font size
0
reset
how to read this tab
guitar tuner
×
Best way to learn
"Pegaso"
Autoscroll
slow
fast
+/-
esc
set tempo
stop
GAIA PEGASO

INTRO 1: Primera guitarra

|--10---------------------------------------------------------------------
|--10---------------------------------------------------------------------
|--12----------------12-----------------12-----------------------11-------
|--10--------10---------10-----------------10-----------10---------10-----
|--12------------12---------12-----12---------12-----------12---------12--
|--10---10----------------------10-------------------10-------------------

-----------------------------------------------------------------|
-----------------------------------------------------------------|
---------11----------------9---7---9--7---------------7-----6----|
-----------10---------9------9---9-------9-------7--------7------|
----12-------12----------9--------------------------7------------|
-10-----------------7-------------------------5------------------|

INTRO 1: Segunda guitarra

|---------------------------------------------------------------|
|----------------------------------------------------3-------2--|
|--------------------------------------------------4-------2----|
|----4-2-4---2h4-4---4-----4-2-4---2h4-4---4-----4-------2------|
|--5-------5-------5-----5-------5-------5-----2-------0--------|
|---------------------------------------------------------------|


(*)
    D5                                                 B5
|-------------------------------------------------------------------------
|-------------------------------------------------------------------------
|---------------99999999----------------999999---------------------777777-
|-------77777-------------------77777---------------------77777-----------
|--9999-------------------9999---------------------9999-------------------
|-------------------------------------------------------------------------

   A5
-------------------------|
-------------------------|
----------77777-666666---|
-------------------------|
--9999-------------------|
-------------------------|

ESTROFA 1:

G5                 G5           B5        B5                        G5
    Sin control   Inspirada en ti,  conectada y lista para salir
G5                                B5                  B5
           preparada improvisa su próxima parada

G5          B5                           G5                 B5
               como pensar en volver si no hemos partido

(Se toca(*))
D5                           B5                    A5
    Quiero saber  Quien decidió si nos dan el permiso para volar

CORO:

Sin control, para siempre  Sin control,
|---------------------------------------|
|---------------------------------------|
|--7-----11-9-11-----9-s-11---11-x-11---|
|--7-----x--x--x------x-s-x----x-x--x---|
|--5-----9--7--9------7-s-9----9-x--9---|
|------------------------------8-x--8---|

ESTROFA 2:
G5                        G5               B5
         Arriba siempre arriba Si te acompaña

|----------------------------------|
|----------------------------------|
|----------------------------------|
|---9---------------11-------------|
|------10--??..--------9-----?-----|
|----------7----------------7------|

 B5                       G5        G5               B5                 B5
    Cableados, listos para partir Sincronizada hipnótica

|----------------------------------|
|----------------------------------|
|----------------------------------|
|---9---------------11-------------|
|------10--??..--------9-----?-----|
|----------7----------------7------|

G5                          B5                    G5            B5
                             Como pensar en volver si no hemos partido

|----------------------------------------------------------------------|
|--12---------12-----------14--------14-----------15--------15---------|
|------11---------11----?-----11--------11-----?-----11---------11---?-|
|----------12--------12-----------12--------12-----------12--------12--|
|----------------------------------------------------------------------|
|----------------------------------------------------------------------|

CORO:
Sin control para siempre (x3)
|-----------------------------------------|
|-----------------------------------------|
|--7-----11-9-11-----9-s-11---11-x-11-----|
|--7-----x--x--x------x-s-x----x-x--x-----|
|--5-----9--7--9------7-s-9----9-x--9--?--|
|------------------------------8-x--8-----|


B5                  A5
para siempre para siempre


Se toca ( *)
D5                                        B5                    A5
    Quiero saber  Quien decidió si nos dan el permiso para volar


CORO:
Sin control, para siempre  Sin control,
|-----------------------------------------|
|-----------------------------------------|
|--7-----11-9-11-----9-s-11---11-x-11-----|
|--7-----x--x--x------x-s-x----x-x--x-----|
|--5-----9--7--9------7-s-9----9-x--9--?--|
|------------------------------8-x--8-----|


******************************************************************
Cuando toquen G5 pueden tocar una variación:

G5

|------|
|------|
|------|
|--9---|
|--10--|
|--7---|

En algunas partes de la cancion usan esa nota.
Suggest correction
Give kudos to tab author, rate the tab!
1 2 3 4 5
comments
print report bad tab
guest
You may want to rate the tab now too:
select rating
Wanna post a correction for this tab? Suggest correction