Oops, an error
Loading. Please wait.

Fourth Of July bass

304 views 6 this week
no commentswrite comment
1 2 3 4 5
2 more votes to show rating
add to favorites
×
Save as Personal and add changes to this tab that will be seen only by you. Learn more ›
×
You can save this tab as Personal to edit and correct it or add notes. All changes will be seen only by you. Learn more »
launch autoscroll
font size
0
reset
guitar tuner
edit
Autoscroll
slow
fast
+/-
esc
set tempo
stop
Author
Difficulty
-------------------------------------------------------------------------------
                             FOURTH OF JULY - Galaxie 500
-------------------------------------------------------------------------------
Tabbed by: aaron5436
E-mail: aaron5436@hotmail.com

This is NOT 100% correct, but it's pretty close. Listen to the song to get the exact rhythms/timing.

Tuning: standard

Intro (00:13 - 00:48)

00:21
G|--10-10-10-10-12-12/14--14-14-12--12-12-10-10-10-9-10--10-10-10-10-9-10----|
D|---------------------------------------------------------------------------|
A|---------------------------------------------------------------------------|
E|---------------------------------------------------------------------------|

00:22
G|--10-10-10-10-12-12/14--14-14-12-14--14-15-15-14--14-14-15/17-17--17-------|
D|---------------------------------------------------------------------------|
A|---------------------------------------------------------------------------|
E|---------------------------------------------------------------------------|

00:31
G|--17-15-14-14--14-15-14-15-17-14--14-15-14-14--14-15-14-15-14\12-12---------|
D|---------------------------------------------------------------------------|
A|---------------------------------------------------------------------------|
E|---------------------------------------------------------------------------|

00:39
G|--12-14-12--12-14-15--15-14--10-10-10-9-10--10-10-10-10-9-10---------------|
D|---------------------------------------------------------------------------|
A|---------------------------------------------------------------------------|
E|---------------------------------------------------------------------------|

Verse 1 (00:49 - 1:17)

G|---------------------------------------------------------------------------|
D|---------------------------------------------------------------------------|
A|--8-8-8-8-8-8-8-8-8-8-8-8-8-8-8-8------------------------------------------|
E|---------------------------------------------------------------------------|

Chorus - "Maybe I should just change my style..." (1:18 - 1:33)

G|--10-10-10-9--9--7-7-7-5--5--5-5-5-5--5-5--5-7-9-10------------------------|
D|---------------------------------------------------------------------------|
A|---------------------------------------------------------------------------|
E|---------------------------------------------------------------------------|

G|--10-10-10-9--10/12-12-12-12-12-12-12-12-10---10-9-7-9---------------------|
D|---------------------------------------------------------------------------|
A|---------------------------------------------------------------------------|
E|---------------------------------------------------------------------------|

Verse 2 Part 1 - "I stayed at home..." (1:34 - 149)

G|---------------------------------------------------------------------------|
D|---------------------------------------------------------------------------|
A|--8-8-8-8-8-8-8-8-8-8-8-8-8-8-8-8-(x4)-------------------------------------|
E|---------------------------------------------------------------------------|

Part 2 - "And when I fell asleep..." (1:50 - 2:02)

G|--10-10-10-12-12--14--14-14-12-12--10-10-10-9-10--10-10-10-9-10------------|
D|---------------------------------------------------------------------------|
A|---------------------------------------------------------------------------|
E|---------------------------------------------------------------------------|

G|--10-10-10-12-12--14--14-14-14-12-14--15--15-14--14-14---------------------|
D|---------------------------------------------------------------------------|
A|---------------------------------------------------------------------------|
E|---------------------------------------------------------------------------|

"Maybe I should just change my style..." (2:03 - 2:19)

G|--15--15-14--12--12-10-10-10-10-10-12--10---10-9-7-9-----------------------|
D|---------------------------------------------------------------------------|
A|---------------------------------------------------------------------------|
E|---------------------------------------------------------------------------|

G|--9--7--9/12-12-12-12-12-12-12-12-10--10-9-7-9-----------------------------|
D|---------------------------------------------------------------------------|
A|---------------------------------------------------------------------------|
E|---------------------------------------------------------------------------|

Outro

G|----------------------------------10-10-10-12-12-14--14-14-14-12-12--------|
D|---------------------------------------------------------------------------|
A|--8-8-8-8-8-8-8-8-8-8-8-8-8-8-8-8------------------------------------------|
E|---------------------------------------------------------------------------|

G|----------------------------------10-10-10-12-12-14--14-14-14-12-12--------|
D|---------------------------------------------------------------------------|
A|--8-8-8-8-8-8-8-8-8-8-8-8-8-8-8-8------------------------------------------|
E|---------------------------------------------------------------------------|

G|--12-14-14-14-15--15-15-15-14-15/17-17-15-14--14-15-14-15-14-14------------|
D|---------------------------------------------------------------------------|
A|---------------------------------------------------------------------------|
E|---------------------------------------------------------------------------|

G|--14-15-17-17--17-15-14-12-14--14-12-14-12--12-14-12-14-12-----------------|
D|---------------------------------------------------------------------------|
A|---------------------------------------------------------------------------|
E|---------------------------------------------------------------------------|

G|---------------------------------------------------------------------------|
D|---------------------------------------------------------------------------|
A|--8-8-8-8-8-8-8-8-8-8-8-8-8-8-8-8-(x8)-------------------------------------|
E|---------------------------------------------------------------------------|

(3:22)
G|--10-10-10-9-9--7--7-7-------------7------------7--------------------------|
D|-----------------------10-10--8-10---10-10-8-10---10-----------------------|
A|---------------------------------------------------------------------------|
E|---------------------------------------------------------------------------|

G|--10-10-10-9-9-7--7-7----------7-7---7-----7-7---7-------------------------|
D|----------------------10-10--8-8-8-8----10-8-8-8---------------------------|
A|---------------------------------------------------------------------------|
E|---------------------------------------------------------------------------|

G|--10-10-10-9-9--7--7-7-------------7------------7--------------------------|
D|-----------------------10-10--8-10---10-10-8-10---10-----------------------|
A|---------------------------------------------------------------------------|
E|---------------------------------------------------------------------------|

G|--10-10-10-9-9-7--7-7----------7-7---7-----7-7---7-------------------------|
D|----------------------10-10--8-8-8-8----10-8-8-8---------------------------|
A|---------------------------------------------------------------------------|
E|---------------------------------------------------------------------------|

G|---------------------------------------------------------------------------|
D|---------------------------------------------------------------------------|
A|--8-8-8-8-8-8-8-8-8-8-8-8-8-8-8-8-(x8)-------------------------------------|
E|---------------------------------------------------------------------------|

4:24
G|--10-10-10-12-12-14--14-14--12-12--10-10-10-9-10--10-10-10-9-10------------|
D|---------------------------------------------------------------------------|
A|---------------------------------------------------------------------------|
E|---------------------------------------------------------------------------|

G|--10-10-10-12-12-14--14-14--12-12--14-14-14-15-15-17-17--17-17--------------|
D|---------------------------------------------------------------------------|
A|---------------------------------------------------------------------------|
E|---------------------------------------------------------------------------|

G|--17-15-14--15-14-15-14-17-14--14-15-15--15--14-15-14-15-17-14-------------|
D|---------------------------------------------------------------------------|
A|---------------------------------------------------------------------------|
E|---------------------------------------------------------------------------|

G|--14-15-14-12--14-15-14-17-15--14-15-14-15-14--15-15-15-15-14-17-14--------|
D|---------------------------------------------------------------------------|
A|---------------------------------------------------------------------------|
E|---------------------------------------------------------------------------|

G|--15-14-15-14-12-12--12-12-12-12-12--14--15-17-17-17--17--14-15-14-17-17---|
D|---------------------------------------------------------------------------|
A|---------------------------------------------------------------------------|
E|---------------------------------------------------------------------------|

G|--17-14-15-14-15--14--12-12-12-14-12--10-10-10-9-10--10-10-10-9-10---------|
D|---------------------------------------------------------------------------|
A|---------------------------------------------------------------------------|
E|---------------------------------------------------------------------------|

G|--10-10-10-9-10--10-10-10-9-10---------------------------------------------|
D|---------------------------------------------------------------------------|
A|---------------------------------------------------------------------------|
E|---------------------------------------------------------------------------|

G|--10-10-10-9-10--10-10-10-10-9-10------------------------------------------|
D|---------------------------------------------------------------------------|
A|---------------------------------------------------------------------------|
E|---------------------------------------------------------------------------|

G|--10-10-10-9-10--10-10-10-10-9-10------------------------------------------|
D|---------------------------------------------------------------------------|
A|---------------------------------------------------------------------------|
E|---------------------------------------------------------------------------|

G|--10-10-10-9-10--10-10-10-10-9-10--10-(let ring)---------------------------|
D|---------------------------------------------------------------------------|
A|---------------------------------------------------------------------------|
E|---------------------------------------------------------------------------|




| /  slide up
| \  slide down
| h  hammer-on
| p  pull-off
| ~  vibrato
| +  harmonic
| x  Mute note
===============================================================================

            
            
Suggest correction
Creating personal tab
Creating personal tab
You can edit any tab online and save it as your Personal.

You can edit, replace or remove any tab part or add personal notes – all changes will be seen only by you.

Personal tabs can be accessed anytime from any device, even offline.
Learn more »
Give kudos to tab author, rate the tab!
1 2 3 4 5
comments
print report bad tab
guest
You may want to rate the tab now too:
select rating
Wanna post a correction for this tab? Suggest correction