Oops, an error
Loading. Please wait.

Weight In Gold chords

version 3
version 3

Whole song

by Gallant
181 views 15 this week
1 commentread comment
1 2 3 4 5
3 more votes to show rating
add to favorites
×
Save as Personal and add changes to this tab that will be seen only by you. Learn more ›
×
You can save this tab as Personal to edit and correct it or add notes. All changes will be seen only by you. Learn more »
launch autoscroll
font size
0
reset
transpose
0
reset
display chords
guitar tuner
edit
Autoscroll
slow
fast
+/-
esc
set tempo
stop
Strumming
There is no strumming pattern for this song yet. and get +5 IQ
[Intro] 
E|------------------------------------------|
B|-------11------------8--------------------|
E|-10/12----10-10p12--8---------------------|
D|------------------------------------------|
A|------------------------------------------|
E|------------------------------------------|

[Verse 1]
Eb                Ab  Cm         Ab              Eb
Black dust in orbit... cascades down like a parachute
Eb                   Ab  Cm              Ab                      Eb
Bricks on my shoulders... this gravity hurts when you know the truth

[Chorus]
                  Eb  G   Cm 
I’m pulling my weight in gold
  F     Eb               G
Call me anxious, call me broke
             Cm              Ab
But I can’t lift this on my own
                  Eb  G   Cm 
I’m pulling my weight in gold
  F     Eb               G
Call me anxious, call me broke
             Cm              Ab
But I can’t lift this on my own

[Interlude]
E|------------------------------------------|
B|-------11------------8--------------------|
E|-10/12----10-10p12--8---------------------|
D|------------------------------------------|
A|------------------------------------------|
E|------------------------------------------|

[Verse 2]
Eb                   Ab  Cm        Ab                   Eb
We dreamt like martyrs... I never thought I was bold enough
Eb                  Ab  Cm          Ab                         Eb
You pushed me further... and I take the blame for the both of us

[Chorus]
                   Eb  G   Cm 
I’m pulling my weight in gold
  F     Eb               G
Call me anxious, call me broke
             Cm              Ab
But I can’t lift this on my own
                  Eb  G   Cm 
I’m pulling my weight in gold
  F     Eb               G
Call me anxious, call me broke
             Cm              Ab
But I can’t lift this on my own

[Interlude]
Am Ab G

[Bridge]
Fm            Bb
Oh, Universe, hold me up
Eb                          Ab     Dm
You tried your best, is it ever enough
                  Gm
When it’s already dragging me down?

[Chorus]
                   Eb  G   Cm 
I’m pulling my weight in gold
  F     Eb               G
Call me anxious, call me broke
             Cm              Ab
But I can’t lift this on my own
                  Eb  G   Cm 
Pulling my weight in gold
  F     Eb               G
Call me anxious, call me broke
             Cm              Ab
But I can’t lift this on my own

[Outro]
E|------------------------------------------|
B|-------11------------8--------------------|
E|-10/12----10-10p12--8---------------------|
D|------------------------------------------|
A|------------------------------------------|
E|------------------------------------------|
Suggest correction
Creating personal tab
Creating personal tab
You can edit any tab online and save it as your Personal.

You can edit, replace or remove any tab part or add personal notes – all changes will be seen only by you.

Personal tabs can be accessed anytime from any device, even offline.
Learn more »
Give kudos to tab author, rate the tab!
1 2 3 4 5
comments
print report bad tab
1 comment total.
0 reply
ccch74 1,629 May 15, 2017 01:26 PM, edited at 05:31 pm

. do you know the strumming pattern?

guest
You may want to rate the tab now too:
select rating
Wanna post a correction for this tab? Suggest correction