Oops, an error
Loading. Please wait.

In The Belly Of A Shark intro tab

version 1
version 1

Intro

Whole song

Interactive

by Gallows
5,353 views 1 this week
2 commentsread comments
1 2 3 4 5
2 more votes to show rating
add to favorites
×
Save as Personal and add changes to this tab that will be seen only by you. Learn more ›
×
You can save this tab as Personal to edit and correct it or add notes. All changes will be seen only by you. Learn more »
launch autoscroll
font size
0
reset
how to read this tab
guitar tuner
backing track
0:00
0:00
edit
Autoscroll
slow
fast
+/-
esc
set tempo
stop
Not sure what the tuning is for this one.

   E. S E E E E Q   E. S E E H
1|----------------|-------------|
2|----------------|-------------|
3|----------------|-------------|
4|----------6-----|-------------|
5|------5-7---7-5-|----------4b-|
6|-0--0-----------|-0--0-3p0----|

H - Half note
Q - Quarter note
E - Eighth note
S - Sixteenth note
E. - Dotted eighth note (lasts for three 16ths)
p - Pull off
b - Bend

            
            
Suggest correction
Creating personal tab
Creating personal tab
You can edit any tab online and save it as your Personal.

You can edit, replace or remove any tab part or add personal notes – all changes will be seen only by you.

Personal tabs can be accessed anytime from any device, even offline.
Learn more »
Give kudos to tab author, rate the tab!
1 2 3 4 5
comments
print report bad tab
2 comments total.
+1 reply
brendman 10 May 02, 2007 07:08 AM

--------------------------------------------
---------------------------------------------
----------------------------------------------
---------------4p0--------------------------
---0-0-3p0----------------------------------
-----------------------0-0-h3p0 5----------



--------------------------------------------
---------------------------------------------
----------------------------------------------
---------------4p0--------------------------
---0-0-3p0----------------------------------
-----------------------0-0-h3p0 5----------


--------------------------------------------
---------------------------------------------
----------------------------------------------
---------------4p0--------------------------
---0-0-3p0----------------------------------
-----------------------0-0-h3p0 5----------


--------------------------------------------
---------------------------------------------
----------------------------------------------
---------------4p0--------------------------
---0-0-3p0----------------------------------
-----------------------0-0-h3p0 5/6--------


mate thats the intro i no steph and frank.

and i got told that tab ^^ by ric there younger brother in a band called blackhole check them out www.mysace.com/blackholesound


safe.

0 reply
charlieshikari 10 Oct 30, 2007 12:59 PM

inaccurate.

guest
Wanna post a correction for this tab? Suggest correction