Oops, an error
Loading. Please wait.

Last June Tab

version 1
version 1

Whole song

Interactive

3,140 views 1 this week
no commentswrite comment
1 2 3 4 5
1 last vote to show rating
add to favorites
launch autoscroll
font size
0
reset
how to read this tab
guitar tuner
Autoscroll
slow
fast
+/-
esc
set tempo
stop
Help us to improve Ultimate-Guitar.com Take our survey!
×
Author
Difficulty
Tuning
intermediate
C# G# C# F# A# D#
---------------------------------------------------------------------------
                             LAST JUNE - Gallows
---------------------------------------------------------------------------

Tuning: C#,Ab,C#,F#,Bb,Eb or Db,G#,Db,Gb,A#,D#.

Cover video at http://www.youtube.com/watch?v=t9WiuFzkJ00.

VERSE:

eb|-----------------------------------------------------------------------|
Bb|-----------------------------------------------------------------------|
F#|-----3333-------5555---------------------------------------------------|
C#|-000-3333-22233-5555-66550033-66550033---------------------------------|
Ab|-000-1111-22233-3333-66550033-66550033--X4-----------------------------|
C#|-000------22233------66550033-66550033---------------------------------|

CHORUS:

eb|-----------------------------------------------------------------------|
Bb|-----------------------------------------------------------------------|
F#|-----------------------6-5---6-5---------------------------------------|
C#|-88888888-7777-4444--0-----0--------88888888-7777-4444--0------0-------|
Ab|-88888888-7777-4444--0-----0-----X2-88888888-7777-4444--0------0-------|
C#|-88888888-7777-4444--0-----0--------88888888-7777-4444--0-4-3--0-4-3---|

eb|----------------------|
Bb|----------------------|
F#|----------------------|
C#|-88888888-7777-4444---|
Ab|-88888888-7777-4444---|
C#|-88888888-7777-4444---|

SOLO: (Guitar one just plays the verse again)

eb|--------------------------------------------------------------------|
Bb|-10----10----10----10----10----10----10----10-----------------------|
F#|-12b14-12b14-12b14-12b14-12b14-12b14-12b14-12b14-12-12-10-10--------|
C#|------------------------------------------------------------12-12---|
Ab|--------------------------------------------------------------------|
C#|--------------------------------------------------------------------|

eb|---16--15--14--13--12--11--10-9-8-7-6-5---------------|
Bb|-16--15--14--13--12--11--10--9-8-7-6-5----------------|
F#|----------------------------------------12-10----10---|
C#|----------------------------------------------12------|
Ab|------------------------------------------------------|
C#|------------------------------------------------------|

VERSE 2:

eb|-----------------------------------------------------------------------|
Bb|-----------------------------------------------------------------------|
F#|-----3333-------5555---------------------------------------------------|
C#|-000-3333-22233-5555-66550033-66550033---------------------------------|
Ab|-000-1111-22233-3333-66550033-66550033--X4-----------------------------|
C#|-000------22233------66550033-66550033---------------------------------|

CHORUS 2:

eb|-----------------------------------------------------------------------|
Bb|-----------------------------------------------------------------------|
F#|-----------------------6-5---6-5---------------------------------------|
C#|-88888888-7777-4444--0-----0--------88888888-7777-4444--0------0-------|
Ab|-88888888-7777-4444--0-----0-----X2-88888888-7777-4444--0------0-------|
C#|-88888888-7777-4444--0-----0--------88888888-7777-4444--0-4-3--0-4-3---|

eb|------------------------|
Bb|------------------------|
F#|------------------------|
C#|-88888888-7777-4444-0~--|
Ab|-88888888-7777-4444-0~--|
C#|-88888888-7777-4444-0~--|

BREAKDOWN:

eb|-----------------------------------------------|
Bb|-----------------------------------------------|
F#|-----------------------------------------------|
C#|-8880-xx-xx-4440-xx-xx-8880-xx-xx-6660-xx-xx---|
Ab|-8880-xx-xx-4440-xx-xx-8880-xx-xx-6660-xx-xx---|
C#|-8880-xx-xx-4440-xx-xx-8880-xx-xx-6660-xx-xx---|

eb|-----------------------------------------------|
Bb|-----------------------------------------------|
F#|-----------------------------------------------|
C#|-8880-xx-xx-4440-xx-xx-8880-xx-xx-66666666-----|
Ab|-8880-xx-xx-4440-xx-xx-8880-xx-xx-66666666-----|
C#|-8880-xx-xx-4440-xx-xx-8880-xx-xx-66666666-----|

eb|-----------------------------------------------|
Bb|-----------------------------------------------|
F#|-----------------------------------------------|
C#|-8880-xx-xx-4440-xx-xx-8880-xx-xx-6660-xx-xx---|
Ab|-8880-xx-xx-4440-xx-xx-8880-xx-xx-6660-xx-xx-X4|
C#|-8880-xx-xx-4440-xx-xx-8880-xx-xx-6660-xx-xx---|

CHORUS 3:

eb|-----------|
Bb|-----------|
F#|-----------|
C#|-8-8--7-4--|
Ab|-8-8--7-4--|
C#|-8-8--7-4--|
    A C  A B!

eb|-----------------------------------------------------------------------|
Bb|-----------------------------------------------------------------------|
F#|-----6-5---6-5------------------------6-5----6-5-----------------------|
C#|---0-----0------88888888-7777-4444--0------0------88888888-7777-4444---|
Ab|---0-----0------88888888-7777-4444--0------0------88888888-7777-4444---|
C#|---0-----0------88888888-7777-4444--0------0------88888888-7777-4444---|


eb|----------------------------------|
Bb|----------------------------------|
F#|----------------------------------|
C#|-0------0------88888888-7777-4444-|
Ab|-0------0------88888888-7777-4444-|
C#|-0-3-4--0-3-4--88888888-7777-4444-|

===========================================================================

Suggest correction
Give kudos to tab author, rate the tab!
1 2 3 4 5
comments
print report bad tab
guest
You may want to rate the tab now too:
select rating
Wanna post a correction for this tab? Suggest correction