Oops, an error
Loading. Please wait.

The Riverbed tab

version 2
version 2

Whole song

by Gallows
3,421 views 3 this week
1 commentread comment
1 2 3 4 5
x 5
add to favorites
×
Save as Personal and add changes to this tab that will be seen only by you. Learn more ›
×
You can save this tab as Personal to edit and correct it or add notes. All changes will be seen only by you. Learn more »
launch autoscroll
font size
0
reset
how to read this tab
guitar tuner
edit
Autoscroll
slow
fast
+/-
esc
set tempo
stop
Track number 8 on the new album. 

tabbed by kasey
Email : kdp123@hotmail.co.uk 

Drop D tuning.

Gallows Rule! 

0:23
e|----------------------------------------------|
B|----------------------------------------------|
G|----------------------------------------------|
D|--0-8-00-8-00-8-00-8-00-8-00-8-00-8-00-8-00---|
A|--0-8-00-8-00-8-00-8-00-8-00-8-00-8-00-8-00---|
D|--0-8-00-8-00-8-00-8-00-8-00-8-00-8-00-8-00---|

0:45
e|------------------------------------------------|
B|------------------------------------------------|
G|------------------------------------------------|
D|--0-8-0-0~~--0-8-0-0~--3333333322255523---------|
A|--0-8-0-0~~--0-8-0-0~--3333333322255523---------|
D|--0-8-0-0~~--0-8-0-0~--3333333322255523---------|

1:04
e|-------------------------------------------|
B|-------------------------------------------|
G|-------------------------------------------|
D|--0-8-0-0~--0-8-0-0~--0-8-0-0~--0-8-0-0~---|
A|--0-8-0-0~--0-8-0-0~--0-8-0-0~--0-8-0-0~---|
D|--0-8-0-0~--0-8-0-0~--0-8-0-0~--0-8-0-0~---|


1:20
e|------------------------------------------------|
B|------------------------------------------------|
G|------------------------------------------------|
D|--0-8-0-0~~--0-8-0-0~--3333333322255523---------|
A|--0-8-0-0~~--0-8-0-0~--3333333322255523---------|
D|--0-8-0-0~~--0-8-0-0~--3333333322255523---------|

1:55
e|-------------------------------------|
B|-------------------------------------|
G|-------------------------------------|
D|-------------------------------------|
A|--0-3-5-0-3-7-0-3-5-0-3-5-0-2-3-2----|
D|-------------------------------------|

2:40. Chorus part!
e|------------------------|
B|------------------------|
G|------------------------|
D|--88888-2222-3333-5555--|
A|--88888-2222-3333-5555--|
D|--88888-2222-3333-5555--|

2:08
e|-------------------------------------|
B|-------------------------------------|
G|-------------------------------------|
D|-------------------------------------|
A|--0-3-5-0-3-7-0-3-5-0-3-5-0-2-3-2----|
D|-------------------------------------|

2:20
e|------------------------|
B|------------------------|
G|------------------------|
D|--88888-2222-3333-5555--|
A|--88888-2222-3333-5555--|
D|--88888-2222-3333-5555--|

e|------------------------|--------------------------|
B|------------------------|--------------------------|
G|------------------------|--101010------------------|
D|--88888-2222-3333-5555--|--101010-7777-8888-11-11--|
A|--88888-2222-3333-5555--|--888888-7777-8888-11-11--|
D|--88888-2222-3333-5555--|---------7777-8888-11-11--|

2:27
e|-------------------------------------------|
B|-------------------------------------------|
G|-------------------------------------------|
D|--0-8-0-0~--0-8-0-0~--0-8-0-0~--0-8-0-0~---|
A|--0-8-0-0~--0-8-0-0~--0-8-0-0~--0-8-0-0~---|
D|--0-8-0-0~--0-8-0-0~--0-8-0-0~--0-8-0-0~---|

2:38
e|---------------------------------------------|
B|---------------------------------------------|
G|-3-----------3--------3----------------------|
D|-3-----------3--------3----------------------|
A|-1---0000000-1-000000-1-000000----7p0-3p2h2--|
D|-----0000000---000000---000000--------=------|
PM!    *******   ******   ******

3:06
e|------------------|
B|------------------|
G|------------------|
D|--8--8--8--8--0~--|
A|--8--8--8--8--0~--|
D|--8--8--8--8--0~--|

e|----------------------------------------------|
B|----------------------------------------------|
G|----------------------------------------------|
D|--0-8-00-8-00-8-00-8-00-8-00-8-00-8-00-8-00---|
A|--0-8-00-8-00-8-00-8-00-8-00-8-00-8-00-8-00---|
D|--0-8-00-8-00-8-00-8-00-8-00-8-00-8-00-8-00---|

e|------------------------------------------------|
B|------------------------------------------------|
G|------------------------------------------------|
D|--0-8-0-0~~--0-8-0-0~--3333333322255523---------|
A|--0-8-0-0~~--0-8-0-0~--3333333322255523---------|
D|--0-8-0-0~~--0-8-0-0~--3333333322255523---------|

e|------------------|
B|------------------|
G|------------------|
D|--8--8--8--8--0~--|
A|--8--8--8--8--0~--|
D|--8--8--8--8--0~--|
End on this.

            
            
Suggest correction
Creating personal tab
Creating personal tab
You can edit any tab online and save it as your Personal.

You can edit, replace or remove any tab part or add personal notes – all changes will be seen only by you.

Personal tabs can be accessed anytime from any device, even offline.
Learn more »
comments
print report bad tab
1 comment total.
0 reply
ibanez_uchiha 207 Aug 19, 2009 02:22 PM

Nice one,missed out the dischords though.

guest
You may want to rate the tab now too:
select rating
Wanna post a correction for this tab? Suggest correction