Oops, an error
Loading. Please wait.

Alsatia Tab

version 1
version 1

Solo

Interactive

3,885 views 1 this week
no commentswrite comment
1 2 3 4 5
accurate
x 4
add to favorites
launch autoscroll
font size
0
reset
how to read this tab
guitar tuner
Autoscroll
slow
fast
+/-
esc
set tempo
stop
Help us to improve Ultimate-Guitar.com Take our survey!
×
Author
Difficulty
intermediate
                             Galneryus-Alsatia(solo)


E------------------------------------------------------------------------------------|
B------------------------------------------------------------------------------------|
G-----------/4~------------------------------------------14~--------14b16~--12h14p12-|
D---11--12-------11--12--/7~---11-12-14-12-11-12--11-12-------11-12------------------|
A------------------------------------------------------------------------------------|
E------------------------------------------------------------------------------------|

-----------------------------------------------------------------------------------|
-----------------------------------------------------------------------------------|
-/11-11h12p11------------------/4~-----------------------------------------14~-----|
---------------14-12---11--12-------11--12--/7~--11-12-14-12-11-12--11-12----------|
-----------------------------------------------------------------------------------|
-----------------------------------------------------------------------------------|

----------------------------------------------------------------17b19--------------|
--------------------------------17-19~--------------------/10----------17b19--15---|
--------14b16b14b16~---16-18-19---------19b21b19~--18-19---------------------------|
-11-12-----------------------------------------------------------------------------|
-----------------------------------------------------------------------------------|
-----------------------------------------------------------------------------------|

-----------------------------------------------------------------------------------|
-14-15-15~-------------17-19~------------------------------------------------------|
--------------16-18-19---------19b21b19~-18--19-18-/14~---12p11-12p11----11--------|
----------------------------------------------------------------------14----14b16--|
-----------------------------------------------------------------------------------|
-----------------------------------------------------------------------------------|

-------------------------------13b14-13b14----------------------------7-----12p10--|
----12---------------12h15p12--------------------15------------10p7-----10---------|
-11----11p14-14b16~------------------------16p14----16~---11p9------9--------------|
-----------------------------------------------------------------------------------|
-----------------------------------------------------------------------------------|
-----------------------------------------------------------------------------------|

---------------------------------7-----12h17p12------------------------------------|
-12-10--------------------10p7-----10-----------14---------------------------------|
-------11-9----------11p9------9-------------------14------------------------------|
------------12-9--------------------------------------14----------------12h14------|
-----------------12---------------------------------------16-12~--12h14------------|
-----------------------------------------------------------------------------------|

---------------------------------------17b19b17-15-14h15p14------------17-19-------|
----------15-17p15-17b19~-17p15-17p15-----------------------17-15---19-------------|
-11h14/16--------------------------------------------------------------------------|
-----------------------------------------------------------------------------------|
-----------------------------------------------------------------------------------|
-----------------------------------------------------------------------------------|

-22p19p17----17h19h22p19p17----17h19h22p19p17----17---24t22p19p17----17------------|
----------19----------------19----------------19------------------19---------------|
-----------------------------------------------------------------------------------|
-----------------------------------------------------------------------------------|
-----------------------------------------------------------------------------------|
-----------------------------------------------------------------------------------|

--24t22p19p17----17--24t22t24t22t24t22t24-------------------------------------------|
--------------19-------------------------------------------16b18b16b18b16-----------|
-------------------------------------------16-16-16-14-16------------------20b22b20-|
------------------------------------------------------------------------------------|
------------------------------------------------------------------------------------|
------------------------------------------------------------------------------------|
Suggest correction
comments
print report bad tab
guest
You may want to rate the tab now too:
select rating
Wanna post a correction for this tab? Suggest correction