Oops, an error
Loading. Please wait.

Alsatia Tab

version 2
version 2

Solo

Interactive

2,842 views 1 this week
1 commentread comment
1 2 3 4 5
worth learning
x 6
add to favorites
launch autoscroll
font size
0
reset
how to read this tab
guitar tuner
Autoscroll
slow
fast
+/-
esc
set tempo
stop
Help us to improve Ultimate-Guitar.com Take our survey!
×
Author
Difficulty
intermediate
Check out my cover of this amazing solo on youtube:
http://www.youtube.com/watch?v=sb8h3Vx6naE

Tabbed by: JDskate
Email: jonas.wenner@gmx.de

Tuning: Half-Step Down

tr = Triller
b = Bend
rb = release bend
h = Hammer On
p = Pull Off
~ = Vibrato
\ = Slide Down
/ = Slide Up
PM = Palm Mute
T = Tap


|--------------------------------------------------------------|
|--------------------------------------------------------------|
|--------------------------------------------14----------14b16-|
|-11-12-----11-12----11-12-14-12-11-12-11-12----12-11-12-------|
|-------14--------12-------------------------------------------|
|--------------------------------------------------------------|

|----------------------------------------------------------------|
|----------------------------------------------------------------|
|-12h14p12p11-11-14p12p11----------------------------------------|
|-------------------------14-12-11-12----11-12----11-12-14-12-11-|
|-------------------------------------14-------12----------------|
|----------------------------------------------------------------|

|---------------------------------------------12-14-----------|
|------------------------------------12-14-15-------15b17rb15-|
|----------14----------14b16T21p16~---------------------------|
|-12-11-12----12-11-12----------------------------------------|
|-------------------------------------------------------------|
|-------------------------------------------------------------|

|--------------17b19--------------------------------12-14----------|
|-14b15rb14----------17b19-15-14-15b17-15--12-14-15------15b17rb15-|
|-----------14-----------------------------------------------------|
|------------------------------------------------------------------|
|------------------------------------------------------------------|
|------------------------------------------------------------------|

|--------------------------------------------------------------|
|-14b15rb14----------------------------10-12p10----10b12-12-15-|
|-----------14-12p11-12p11----11----------------11-------------|
|--------------------------14----14b16-------------------------|
|--------------------------------------------------------------|
|--------------------------------------------------------------|

|---------------------------------------------------12p10-------|
|-17b19-17b19-15p12----12/15-12-------10------12p10-------12p10-|
|-------------------14-----------11p9----11p9-------------------|
|---------------------------------------------------------------|
|---------------------------------------------------------------|
|---------------------------------------------------------------|

|----------------------------12p10-17p12--------------------------|
|--------------10------12p10-------------14-----------------------|
|---------11p9----11p9-----------------------------------------14-|
|-12p9------------------------------------------------14-15-16----|
|------12-----------------------------------12--14-17-------------|
|-----------------------------------------------------------------|

|----------------------17-----------------17b19-17-15-14----------|
|----12-15-17-15-17b19----19rb17-15-17-15----------------18-17-15-|
|-16--------------------------------------------------------------|
|-----------------------------------------------------------------|
|-----------------------------------------------------------------|
|-----------------------------------------------------------------|


|-------19h22p19----------------19h22p19-------19h22p19-------|
|-19h22----------22p19h22-19h22----------19h22----------19h24-|
|-------------------------------------------------------------|
|-------------------------------------------------------------|
|-------------------------------------------------------------|
|-------------------------------------------------------------|

|-19h24p19-------19h24p19-------19tr24-|
|----------19h24----------19h24--------|
|--------------------------------------|
|--------------------------------------|
|--------------------------------------|
|--------------------------------------|

                         fast  slow  fast  slow
|----------------------------------------17\\-|
|----------------17b19-17b19-17b19-17b19------|
|-14-16-16-14-16------------------------------|
|---------------------------------------------|
|---------------------------------------------|
|---------------------------------------------|

Suggest correction
comments
print report bad tab
1 comment total.
0 reply
JDskate 74 wrote on December 7 2010, 11:59 am

guys, you gotta be kidding me, 2 stars?
the TAB is 99,9% right!!!

guest
You may want to rate the tab now too:
select rating
Wanna post a correction for this tab? Suggest correction