Oops, an error
Loading. Please wait.

Come Away Death Bass Tab

177 views 1 this week
no commentswrite comment
1 2 3 4 5
please rate
add to favorites
launch autoscroll
font size
0
reset
guitar tuner
Autoscroll
slow
fast
+/-
esc
set tempo
stop
Help us to improve Ultimate-Guitar.com Take our survey!
×
Difficulty
intermediate
Learnt and trasncripted some part of the song by ear, so this might not be accurate.
I also believe that the recorded version of the song is played on a fretless bass so 
double dose of non accuracy :)
This a great groovy song with one of the most awesome bass lines I have heared.
Hope it helps someone (great taste dude)

E-7-7-------------------------------|
A-----9-9-----------9-------9-7-5---|
D-------------7-8-9---7-9-7---------|
G---------6-6-----------------------|

E-----7-5-5-5-----------------------|
A-5-4---------5-7-------------------|
D-----------------4-4-4-8-8---------|
G---------------------------4-4-4---|

E-----------------7-7---------------|
A-------------7-5-----9-------9-7-5-|
D-7-5-4-4-7-4-----------7-9-7-------|
G-----------------------------------|

E-------------------------5-7-------|
A-5-7-7---7-----------9-5-----5-5-5-|
D-------6---7---9-7-7---------------|
G-------------6---------------------|

E-----------------------------------|
A-----------------------------------|
D-5-5-7-7-7-5-4-4-----3(3s5)7-------|
G-----------------6-6---------4-7-6-|

E-----------------------------------|
A-4-----------------------------7-6-|
D---6-5-4-4-4-6-7-7-7-6-5-5-5-4-----|
G-----------------------------------|

E-------------------------------7---|
A-5-------------------------7-5---9-|
D---4-5-8-4-----7-5-4-----4---------|
G-----------4-4-------5-6-----------|

E-----------7-7-6-5-5-9-------------|
A-------9-7-------------7-9-9-9-9-8-|
D-7-9-7-----------------------------|
G-----------------------------------|

E-----------------------14----------|
A-8-9-14----------------------------|
D--------16-16-16-15-16----9-7-9-7--|
G-----------------------------------|

E---------------------------------5-|
A-9-7-5-5-7-7---7-------------9-5---|
D-------------6---7-7-7---9-7-------|
G-----------------------6-----------|

E-7---7-----------------------------|
A---5---5---------------------------|
D---------6-6(6h7)7-7-5-4-7---4-7-6-|
G---------------------------6-------|

E-----------------------------------|
A-----------4---4-------------------|
D-5-5---------------4-4-4-4-6-7-7-7-|
G-----4-5-6---6---6-----------------|

E-----------------------------------|
A-------------7-5-------------------|
D-7-6-5-5-5-4-----------------------|
G-----------------------------------|
Suggest correction
Give kudos to tab author, rate the tab!
1 2 3 4 5
comments
print report bad tab
guest
You may want to rate the tab now too:
select rating
Please do not post tabs as comments. Select "correction" instead!