Oops, an error
Loading. Please wait.

Dos Corazones Tab

36 views 1 this week
no commentswrite comment
1 2 3 4 5
3 more votes to show rating
add to favorites
×
Save as Personal and add changes to this tab that will be seen only by you. Learn more ›
×
You can save this tab as Personal to edit and correct it or add notes. All changes will be seen only by you. Learn more »
save as personal
new!
launch autoscroll
font size
0
reset
how to read this tab
guitar tuner
Autoscroll
slow
fast
+/-
esc
set tempo
stop
ESTA CANCIÓN SE TOCA ORIGINALMENTE POR FA SOSTENIDO MENOR (Fa#m)
LA INTRODUCCIÓN SE TOCA CON LOS SIGUIENTES ACORDES:


  FA#m   E          A
e--5-5-5-4-4-5-7--5-4-2-2-0-2-0----------------------------
B--7-7-7-5-5-7-9--7-5-3-3-2-3-2----------------------------
G----------------------------------------------------------
D----------------------------------------------------------
A----------------------------------------------------------
E----------------------------------------------------------

  DO#7       FA#m             D            DO#7
e--9-9--7-7--10-10--9-9-------2-2--2-2--4-2-1---4----------
B-----------------------------3-3--3-3--6-3-2---6----------
G----------------------------------------------------------
D----------------------------------------------------------
A----------------------------------------------------------
E----------------------------------------------------------


FA#m
Quisiera tener dos corazones.... etc (sigan la tablatura de rene,
 están perfectos los acordes
en la cancion existe un riff (1) despues de la parte que dice:

"quisiera tener dos corazones"

Riff 1
e-12-10---12-10---10--14-12---14----12--12-10---12-10--9-
B-12---12------12-----14---14----14-----12---12---12--10----
G----------------------------------------------------------
D----------------------------------------------------------
A----------------------------------------------------------
E----------------------------------------------------------
Suggest correction
Give kudos to tab author, rate the tab!
1 2 3 4 5
comments
print report bad tab
guest
Wanna post a correction for this tab? Suggest correction