Oops, an error
Loading. Please wait.

La Cita Bass Tab

184 views 1 this week
no commentswrite comment
1 2 3 4 5
3 more votes to show rating
add to favorites
launch autoscroll
font size
0
reset
guitar tuner
×
Best way to learn
"La Cita"
Autoscroll
slow
fast
+/-
esc
set tempo
stop
despues de mucho tiempo, aca dejo una nueva transcripcion
para bajo, con esta estupenda cancion

  X  =  nota mutada   (por lo general en el traste 5)
  12  10  =   bicordes
  12  10

Intro
E|----|----|-----|----|
A|----|----|-----|----|
D|----|--3-|-6-6-|----|
G|--5-|-5--|-----|-5--|

pasa y sientate
E|----|---|-------|----|
A|----|-8-|-------|----|
D|----|---|-8-8-8-|----|
G|--5-|---|-------|-8--|

imaginate
E|---------|--------|-6-6--6-|--------|
A|--3------|--------|--------|-6------|
D|---5--5--|-3-3--3-|--8--8--|--8--8--|
G|----5--5-|--5--5--|--------|---8--8-|

un desconocido
E|----4----|-------------|-------------------|
A|---6--6--|-10--10---10-|-8--8-5--5--5------|
D|--6----6-|---12---12---|--10---66-5--5--5--|
G|---------|---12---12---|--10-----------7---|

un amante improvisado
E|------|-----------|-------|-----------|----------|
A|------|----5----5-|-------|-------5-5-|--5---5---|  X=traste 10 y 8
D|--6-6-|-7-7---5---|--8----|--6-6---6--|-5---5-5--|
G|---8--|------7----|-X--X8-|-X-8-------|---7------|

Desnudate ahora
E|------|-----|-----|-----|-----|-----|-----------|
A|------|-----|---1-|---6-|-----|-----|-----------|
D|--3-3-|-----|-3---|-8---|-8---|--8--|--5----5---|
G|---5--|-5-3-|-----|-----|---8-|-X-8-|-5-5-5X-5--|

te juro que hoy
E|---------|--------|-----|------|
A|---------|--------|---3-|------|
D|--3-3--3-|-5-5--5-|--5--|------|
G|---5--5--|--7--7--|-5---|---5--|

y fueron mis manos
E|----------|--------|--------|---------|
A|----3-----|--------|--------|--6---6--|
D|--3--3--3-|--3--3--|-5-5--5-|-6---6-6-|
G|---X---5--|-3-3--3-|--7--7--|---8-----|

es mi corazon
E|----------|--------|--------|
A|------5-5-|--5--5--|-3------|
D|--3-3--6--|-5-5--5-|--5--5--|
G|---5------|--------|---5--5-|

para siempre
E|---------|-6----6----|-----------|---------|------------|
A|---------|-----------|--5----5---|--6---6--|-8----------|
D|--3-3--3-|--888--888-|-5---5X--5-|-6---6-6-|---10-------|
G|---5--5--|-----------|---7----X--|---8-----|-----10-10--|

E|------------|----|  |-------------------|
A|---8-55--5--|----|  |--3------3------3--|
D|--8----6--6-|-6--|  |----5--5---5--5----|
G|------------|----|  |-----5--5---5--5---|

Imaginate
E|----------|--------|-6-6--6-|--------|
A|--3-------|--------|--------|-6------|
D|---5---5--|-3-3--3-|--8--8--|--8--8--|
G|----5-X-5-|--5--5--|--------|---8--8-|

un desconocido
E|---------|--------|---------|---------|
A|------6--|--------|-----5-5-|---------|
D|--6-6--6-|-5-5--5-|-3-3--6--|-5-5--5--|
G|---8-----|--7--7--|--5------|--7--7---|

un amante improvisado
E|------|-5-------|-6-----|---------|---3-|-----|
A|------|---5--5--|--8-6--|--6--5-5-|--5--|-5---|
D|--6-6-|-----5-5-|-----8-|-6-6--6--|-5---|--5--|
G|---8--|---------|-------|---------|-----|-----|

Desnudate ahora
E|---------|--------|--------|---------|
A|---3-----|---1--1-|-6-6--6-|---------|
D|--3-3--3-|--3--3--|--8--8--|--5--5---|
G|------5--|-3------|--------|-5-5--5--|

te juro que hoy
E|---------|--------|---------|
A|---------|--5--5--|---------|
D|--3-3--3-|-5-5--5-|--5--5---|
G|---5--5--|--------|-5-5--5--|

y fueron mis manos
E|----------|-------|---------|--------|
A|----------|-------|---------|--------|
D|--3-3-----|-3--3--|-5-5---6-|--6--6--|
G|---5--5-3-|--3--3-|--7--7---|-8--8---|

es mi corazon
E|------|-----|----|------------|
A|------|-55--|-5--|------------|
D|--3-3-|---5-|--5-|-----5--5---|
G|---5--|-----|----|-7-5--5--5--|

para siempre
E|---------|---------|---------|------|--------|
A|---------|---------|-----6-8-|-5-55-|-----8--|
D|--3-3--3-|----7----|----5----|------|-65-5---|
G|---5--5--|-7-5-6-8-|-6-5-----|------|--------|

E|----------|---------|------|--------|
A|----------|-----6-8-|-5-55-|--------|
D|-----7----|----5----|------|-5-4-3--|
G|--7-5-6-8-|-6-5-----|------|--------|

denudate ahora
E|------|-----|-----|-------|--------|---------|
A|--3---|---1-|-----|-------|--------|-6---6---|
D|----3-|-3---|-3---|---3-3-|-5-5--6-|---6X-6--|
G|------|-----|---3-|-3X-X--|--7--7--|--8------|

te juro que hoy
E|-------|-----|-----|-----|-----|------|
A|-------|-----|-----|-----|---3-|------|
D|--3--3-|---5-|---5-|-----|-5---|-5----|
G|---5X--|-5---|-7---|-7-5-|-----|---5--|

y fueron mis manos
E|--------|------|---6-|-----|---------|------------|
A|--8-----|---x--|--8--|--X5-|--5----5-|--X----6----|
D|---10---|-10-8-|-8---|-8---|-5---5X--|---6-6---6--|
G|-----10-|------|-----|-----|---7-----|-X----------|

fue sorpresa para ti
E|---------------|--------|-----|-----|-----|
A|--8--8---------|--------|-----|-----|-----|
D|---10--10------|--3-5-5-|-----|-5---|-5---|
G|---------10-10-|-5---7--|-7-5-|---5-|--5--|

desnudate ahora
E|-----------------|--------------|---------|---------|
A|--8--------------|--8---------8-|--5------|--6--6---|
D|----10------10---|-8-10-----10--|-5--5--5-|-6-6--6--|
G|------10-10---10-|-----10-10----|---7--7--|---------|

es mi corazon
E|---------|------3--|-----|------|
A|---------|--5--X---|-3-3-|------|
D|--3-3--3-|-5-5---5-|--5--|--3---|
G|---5--5--|---------|-----|-X-3--|

y fueron mis manos
E|------|-----|-----|-----|-------|------------|
A|------|-----|-----|-----|-------|----6---6---|
D|--3-3-|-----|-3---|-3-5-|-------|-5-6---6-6--|
G|---5--|-5-3-|---3-|-----|-10-12-|--7--8------|

imagina que soy
E|--------------|--------|-----|-----|-----|----|
A|--8----8----8-|--------|-3---|-3---|-3---|-3--|
D|---10-----10--|-5-5--5-|--5--|---5-|--5--|----|
G|-----10-------|--7--7--|---5-|-----|---5-|----|

pa la chule y el doch
con mucho cariño
y vaya que costo, uff¡¡

atte. el miauri
Suggest correction
Give kudos to tab author, rate the tab!
1 2 3 4 5
comments
print report bad tab
guest
You may want to rate the tab now too:
select rating
Wanna post a correction for this tab? Suggest correction