Oops, an error
Loading. Please wait.

Por Desgracia Tab

134 views 1 this week
no commentswrite comment
1 2 3 4 5
3 more votes to show rating
add to favorites
launch autoscroll
font size
0
reset
how to read this tab
guitar tuner
×
Best way to learn
"Por Desgracia"
Autoscroll
slow
fast
+/-
esc
set tempo
stop
Esta es mi segunda colaboración aki en la cuerda? espero k sea de su agrado


La rola lleva capo en el 3° traste para k se escuche komo la original?


Este es un arreglo para el intro, el intro se toca 4 veces,
y el arreglo se toka en la 1° y en la 3° vez?.
    G        D               C
e---3--3-----2---2---3--5----0----------------------------
b---3--3-----3---3---3--5----1----------------------------
g---0--0-----2---2---0--0----0---------------------------
D---0--0-----0---0---0--0----2---------------------------
A---2--2---------------------3---------------------------
E---3--3---------------------3---------------------------


Intro

G D C  x 4


G                   D
Me pregunto si hay días en los que piensas en mi
C                   D
En este hombre que tanto luchó por ti
G           D
Y recuerdo todos esos días que te dí
C                  D
Diciendo te adoro haría lo que sea por ti

G                     D
Y me cuestiono si realmente valió la pena
             C
partirme la cara decirte mis penas
 D
para que al final estés con él

G          D
Ahora estoy muriéndome
Am           D
 Tratando de entender que hice mal
G         D
Aquí estoy pudriéndome
Am              D
 Sabiendo que por desgracia estas con él

*se repite el intro

*SE REPITE LA  MISMA SECUENCIA DE ACORDES EN LOS VERSOS Y EL CORO*

Pienso en todo lo que hice por alcanzar tu corazón
Lo grito y me aferro me deshizo el interior
No lo entiendo te entregué hasta mas ya no poder
Y te regresas diciendo que lo quieres a el

Razón no encuentro en por que me hizo esto
Quitarme el amor regalarme dolor
Y decirme que su hombre no soy yo

Ahora estoy muriéndome
Tratando de entender que hice mal
Aquí estoy pudriéndome
Sabiendo que por desgracia estas con él

Acompañamiento del solo(los prieros dos al ritmo del intro
 y la tercera la ritmo de un verso)

G D C
G D C
G D C D - E (sube de tono después del solo)

(el solo se toca sin capo)
e------------------------------------------------------------------------8b
b----------------------------4-3--------------------------------------6-8--
g------------------3--5/7--5-----5--3--3/5-3~--3-2-0--------------5/7------
D--------0-0h3-3-5-----------------------------------3--3/5--5--3----------
A----1-3-------------------------------------------------------------------
E-1-3----------------------------------------------------------------------

e----8b-7p5-5/7---6-5----------------------------------------------
b---------------------7-5---------------6-6------8-8-------10--10--
g-------------------------7-5--------5-7---6-7-9-----8-8-10--------
D----------------------------7-5-7-7------------------------------
A-------------------------------- ---------------------------------
E------------------------------------------------------------------


A          E
Ahora estoy muriéndome
Bm          E
Tratando de entender que hice mal
A         E
Aquí estoy pudriéndome
Bm           E                           A
Sabiendo que por desgracia estas con él

     E        Bm     E
 Con el,  con el

A   E    Bm   E (mute) E (mute) E   A

Aki el final es un poko extraño,
solo es cuestión de escuchar la rola
y entenderán el mute y komo terminarla?

Espero k sirva y pues ke la califiquen chido
Sale

Mi amor te amo!!!
Suggest correction
Give kudos to tab author, rate the tab!
1 2 3 4 5
comments
print report bad tab
guest
You may want to rate the tab now too:
select rating
Wanna post a correction for this tab? Suggest correction