Oops, an error
Loading. Please wait.

Nuevo Chords

3 views 1 this week
no commentswrite comment
1 2 3 4 5
3 more votes to show rating
add to favorites
launch autoscroll
font size
0
reset
transpose
0
reset
simplify chords
display chords
guitar tuner
Autoscroll
slow
fast
+/-
esc
set tempo
stop
Strumming
There is no strumming pattern for this song yet. and get +5 IQ
Pues aki esta esta rola chidisima de Gamaliel... Si enkuentran errores  o detalles
o si le agregan mas arreglos mandenlos..

Intro:
            C#      G#      A#m   C#7 F#    F#m    C#

            C#      G#      A#m   C#7 F#    F#m    C#
|-------------|-------|-------|------|---------|--------|
|-------------|-------|-------|------|---------|--------|
|-------------|-------|-6/8/6-|-10/4-|-3--6--2-|-8-8/10-|
|-------------|-6/8/6-|-------|------|---------|--------|
|-----4h6-6/8-|-------|-------|------|---------|--------|
|-4h6---------|-------|-------|------|---------|--------|


A#        F7        A#  A#7
Nunca me pude imaginar
            D#   D#m              A# F7
que al conocerte todo iba a cambiar
 A#      F7              A# A#7
nunca pense que de una cruz
        D#       D#m         A#  A#-G#-F#m
alguien con amor me traeria luz
              C#
Recibi tu perdon
F#m                     G#
   transtornaste mi corazon


Coro:
      C#         G#m            F#
Soy nuevo... soy libre de mi pesar
                           G#
la ansiedad no me atrapara,  mis emociones no mandaran
      C#         G#m               F#
Soy nuevo... soy libre de mi maldad
                         G#
mis sentidos te entregue,  y hasta morir yo te seguire


 D#m F#


A#       F7         A# A#7
En medio de mi soledad
        D#             D#m       A# F7
fue tu mano quien me trajo libertad
A#        F7               A# A#7
te convertiste en mi salvador
      D#          D#m            A#  A#-G#-F#m
y trajiste la respuesta a mi clamor
                  C#
te entregue mi dolor
F#m                     G#
  me sacaste de mi prision


Coro


Puente:
D#m C# G# D#
D#m C# B A# G#...


Outro:

          C#      G#      A#m    C#7 F#    F#m    C#
|-----------|-------|-------|------|---------|--------|
|-----------|-------|-------|------|-4--2----|--------|
|-----------|-------|-6/8/6-|-10/4-|-------2-|-8-8/10-|
|-----------|-6/8/6-|-------|------|---------|--------|
|--------/8-|-------|-------|------|---------|--------|
|-----------|-------|-------|------|---------|--------|


Dudas? Komentarios? Sugerencias? Kejas? ---> burbujo_power_puff_boy@
Suggest correction
Give kudos to tab author, rate the tab!
1 2 3 4 5
comments
print report bad tab
guest
You may want to rate the tab now too:
select rating
Wanna post a correction for this tab? Suggest correction