Oops, an error
Loading. Please wait.
14 views 1 this week
no commentswrite comment
1 2 3 4 5
3 more votes to show rating
add to favorites
launch autoscroll
font size
0
reset
how to read this tab
guitar tuner
Autoscroll
slow
fast
+/-
esc
set tempo
stop
Gamaliel Moran y Muertos una vez :: Sombra
Albúm :: Vago
Estilo:: Rock Metal

[INTRO] - [Guitarra dist/feedback]
                                                  x2
e-|------12--13-12-------|-------12-----12-------||
B-|-12-10----------13-12-|-12-13-----13----13----||
G-|----------------------|--------------------12-||
D-|----------------------|-----------------------||
A-|----------------------|-----------------------||
E-|----------------------|-----------------------||


[Pre-Letra]
                           x2
e-|-----------------------||
B-|-7-5-------7-5---------||
G-|------7-5-------5~-5~--||
D-|-----------------------||
A-|-----------------------||
E-|-----------------------||

[letra] - [frase intro]

Te elevara hacia Él o quizas te lleva a uir una vez

su fuerza de atracción es real, igual que poder de cambiar

su sombra como luz esta ahi, siempre la verás sobre ti

jamas dejará de insistir, no importa donde puedas estas

no importa donde puedas ir.

[Pre-coro]
                                                x4
e-|---------------------||---------------------||
B-|---------------------||---------------------||
G-|---------------------||---------------------||
D-|---------------------||---------------------||
A-|---------------------||---------------------||
E-|-3-4-3-4-3-4-3-4--4~-||-3-4-3-4-3-4-3-4--3~-||

[CORO] - [frase-Pre-Letra]

Sangra ya para darte todo

nada es lo que pierdes

sobran miles de razones para hacer la tuya

[Letra II]

Revela a quien mas buscas tu

la sangre más halla del dolor

te sumo para darte libertad

o para revelarte la verdad

su sombra como luz esta ahi

simpre la veras sobre ti

jamas dejará de insistir, no importa donde puedas estas

no importa donde puedas ir.

[Pre-Coro]

[Coro]

[Solo]

e-|-------------------|------------------||
B-|-------------------|------------------||
G-|-------------------|------------------||
D-|-------------------|------------------||
A-|-------------------|------------------||
E-|-3-4-3-4-3-4-3-4---|-3-4-3-4-3-4-3-4--||

[Coro]

[Intro]

Hasta donde me parece son liteos, pero con un dist, bien pesado
bien metalico...

Disfrutenla, sus comentarios
serán bien recibidos en drzero84@
Suggest correction
Give kudos to tab author, rate the tab!
1 2 3 4 5
comments
print report bad tab
guest
Wanna post a correction for this tab? Suggest correction