Oops, an error
Loading. Please wait.

Nada Chords

9 views 1 this week
no commentswrite comment
1 2 3 4 5
3 more votes to show rating
add to favorites
launch autoscroll
font size
0
reset
transpose
0
reset
display chords
guitar tuner
Autoscroll
slow
fast
+/-
esc
set tempo
stop
Help us to improve Ultimate-Guitar.com Take our survey!
×
(intro)

  Bm                           Bm                      X2
]--0-------------10----9----7----5--]--0-------------10---9---7---]
]---3---------------------------------]----3----------------------]
]-----4----------11----9----7----6--]-------4--------11---9---7---]
]-------4-----------------------------]---------4-----------------]
]----------2--------------------------]-----------2---------------]
]-------------------------------------]---------------------------]
               

Bm : D C# B A 
Bm : D C# B   

Bm : D C# B A 
Bm : D C# B   


Bm                F#m
Hay algunos besos difíciles de  dar
Bm                  F#m
Hay algún secreto que no pienso contar
G                            F#         Bm
 Mientras va  muriendo el día y sin perder la fe
G           D         A
 Mendigando besos me iré
Bm                 F#m
Hay algunos ojos que no pude mirar
Bm                    F#m
Y hay algunos otros Que no me engañan mas 
G                           F#         Bm
 Mientras va muriendo el día y sin perder la fe
G           D         A
 Mendigando besos me iré


Estribillo
Bm      Bm       G          A
 Nada de lo vivido me perdió
Bm       Bm       G       A
Nada de lo perdido me vivió

    G         A            Bm
Un amor ese dios que nunca vi
   G         A             Bm
Y mis sueños por los que sigo aquí


(repite la intro)

  Bm                           Bm                      X2
]--0-------------10----9----7----5--]--0-------------10---9---7---]
]---3---------------------------------]----3--------------------------]
]-----4----------11----9----7----6--]-------4--------11---9---7---]
]-------4-----------------------------]---------4---------------------]
]----------2--------------------------]-----------2-------------------]
]-------------------------------------]--------------------------------]
               

Bm : D C# B A 
Bm : D C# B   

Bm : D C# B A 
Bm : D C# B   


Voy juntando heridas sonrisas de mujer
En alma escondida y en bares que adopte
Mientras va muriendo el día y sin perder la fe
Mendigando besos me iré

Nada de lo vivido me perdió
Nada de lo perdido me vivió
Un amor ese dios que nunca vi 
Y mis sueños por los que sigo aquí

G           A          Bm
 Donde te enseñan a vivir?
G             A        Bm
  Cuando me van a corregir?
E                     A       
 Como me muero mas feliz?
   F#         Bm
 Igual sabré volver 
   E          A
Igual sabré seguir

Porque nada de lo vivido me perdió
Nada de lo perdido me vivió
Un amor ese dios que nunca vi
Y mis sueños por los que sigo aquí

Bambi te quiero mucho!!!
Suggest correction
Give kudos to tab author, rate the tab!
1 2 3 4 5
comments
print report bad tab
guest
You may want to rate the tab now too:
select rating
Wanna post a correction for this tab? Suggest correction