Oops, an error
Loading. Please wait.

Beyond The Black Hole Tab

version 1
version 1

Whole song

Interactive

2,127 views 3 this week
1 commentread comment
1 2 3 4 5
please rate
add to favorites
launch autoscroll
font size
0
reset
how to read this tab
guitar tuner
Tab Pro tools
  • play this tab
  • loop segment
  • change instrument
  • show fretboard
  • metronome
Autoscroll
slow
fast
+/-
esc
set tempo
stop
Contributor
Band : Gamma Ray
Album: Somewhere Out In Space
Song : BEYOND THE BLACK HOLE
[Words&Music by Kai Hansen]
[Transcripted by L-X]


Notations :
.: palm muting (or time 4:4)
h : hammer-on
p : pull-off
^ : bend
^> : bend and release
/ = slide-up
\ = slide-down
~ = vibrato
tr~ = trill
# = tremolo-picking 
>= accentuate

COUPLET1

e|GUIT.1--.-------.-------.-------.-------.-------.-------.-------|
B|----------------------------------------------------------------|
G|----------------------------------------------------------------|
D|-------------------------|-|-|--|>------------------------|-|-|-|
A||------------------------7-9-10-55------------------------3-5-7-|
E|0-------------------------------33------------------------------|
||
||GUIT.2--.-------.-------.-------.-------.-------.-------.-------|
||----------------------------------------------------------------|
||-------------------------|-|-|--|>------------------------------|
||-------------------------5-7-9--55------------------------|-|-|-|
|||-------------------------------33-----------------------/7-9-10|
||0---------------------------------------------------------------| 

|GUIT.1--.-------.-------.-------.-------.-------.-------.-------||
|----------------------------------------------------------------||
|--------------------------------|>--------------|>--|>--|>--|>--||
|||------------------------------77--------------77--77--77--88--||
|55------------------------|-|-|-55--------------55--55--55--66--||
|33------------------------7-5-3---------------------------------||
|
|GUIT.2--.-------.-------.-------.-------.-------.-------.-------||
|----------------------------------------------------------------||
|--------------------------------|>--------------|>--|>--|>--|>--||
|||------------------------------77--------------77--77--77--88--||
|55------------------------|-|-|-55--------------55--55--55--66--||
|33------------------------3-5-7---------------------------------||

 

COUPLET2

||GUIT.1--.-------.-------.-------.-------.-------.-------.-------|
||----------------------------------------------------------------|
||----------------------------------------------------------------|
||-------------------------|-|-|--|>------------------------|-|-|-|
|||------------------------7-9-10-55------------------------3-5-7-|
||0-------------------------------33------------------------------|
||
||GUIT.2--.-------.-------.-------.-------.-------.-------.-------|
||----------------------------------------------------------------|
||-------------------------|-|-|--|>------------------------------|
||-------------------------5-7-9--55------------------------|-|-|-|
|||-------------------------------33-----------------------/7-9-10|
||0---------------------------------------------------------------| 

|GUIT.1--.-------.-------.-------.-------.-------.-------.-------||
|----------------------------------------------------------------||
|--------------------------------|>------------------------------||
|||------------------------------44-------------------\\\\~~~~---||
|55------------------------|-|-|-22-------------------\\\\~~~~---||
|33------------------------7-5-3---------------------------------|| 
||
|GUIT.2--.-------.-------.-------.-------.-------.-------.-------||
|----------------------------------------------------------------||
|--------------------------------|>-------------------\\\~~~~----||
|||------------------------------77--------------------\\\~~~~---||
|55------------------------|-|-|-55------------------------------||
|33------------------------3-5-7---------------------------------|| 

 

BRIDGE1

||TIME:---.-------.-------.-------.-------.-------.-------.-------|
||----------------------------------------------------------------|
|||-----|-|-------|---|---|---|-|-----|-|------|---|------|---|---|
||5-----5-5-------5---9---4---2-9-----9-9------9---9------4---2---|
||3-33333-3-3333333-337-775-553-7-77777-7-777777-7710-10105-553-33|
||--....----......--..--..--..----....----.....--..---.-.---..--..|

||TIME:---.-------.-------.-------.-------.-------.-------.-------|
||----------------------------------------------------------------|
|||-----|-|-------------------------------------------------------|
||5-----5-5-----------5---7---5---4---------------5-------7-------|
||3-33333-3-33333333333---5---3---2---------------3-------5-------|
||--....----............--------------------------................|

 

REFRAIN

_Fly_____
||3-------.-------.--------|.-------.-------.-------|
||3------------------------|------------------------|
||0------------------------||---------------------|-|
||0------------------------|2---------------------7-|
||2--------PREBEND&RELEASE-|2---------------------5-|
||3-------------------2^>2-|0-----------------------| 

|.-------.-------.-------.-------.-------.-------.-------.-------||
|----------------------------------------------------------------||
||-----|-|---|-------------------|-----|-|---|---|>--|>--|>--|>--||
|5-----5-5---5---|-----|-|-------7-----7-7---7---77--77--77--88--||
|3-33333-3-333-335-----5-5-------5-55555-5-555-5555--55--55--66--||
|--....----..--..3-33333-3-333577--....----..--..----------------||

_Ride_____
||--------.-------.--------|.-------.-------.-------|
||-------------------------|------------------------|
||-------------------------|----------------------|-|
||-------------------------|----------------------7-|
|||-----------------(+0.5)-||---------------------5-|
||3-3333333333333333332^>2-|0-00000000000000000000--|
P.M [................]        [..................] 

|TIME:---.-------.-------.-------.-------.-------.-------.-------||
|----------------------------------------------------------------||
||-----|-|---|-------------------|-----|-|---|---|>--|>--|>--|>--||
|5-----5-5---5---|-----|-|-------7-----7-7---7---77--77--77--88--||
|3-33333-3-333-335-----5-5-------5-55555-5-555-5555--55--55--66--||
|--....----..--..3-33333-3-333577--....----..--..----------------||

 

BRIDGE2

||TIME:---.-------.-------.-------.-------.-------.-------.-------|
|||-----|>----------|---|-|-------|-----|>----------|---|---------|
||9-----99----------9---7-5-------9-----99----------9---7-|-------|
||9-----99----------9---7-5-------9-----99----------9---7-7-------|
||7-----77----1099777---5-3-------7-----77----1099777---5-7-------|
||0-000000--00------0-00------00000-000000--00------00----5-------|
P.M.[..]    [......] [.]      [..]  [..]    [......] 

_Oooohhhh_________ooohhh__ooohhh__
||.-------.-------.-------.-------|
||--------------------------------|
||--------------------------------|
||--------------------------------|
||--------------------------------|
||33333333333333335555555577777777|
PM[..............................]
comments
We did not receive enough feedback on this tab! Please rate:
print report bad tab
1 2 3 4 5
1 comment total.
0 reply
monkey of doom wrote on January 16 2008, 05:28 am

Isn't in standard (its one fret down - Eb) and some parts are missing. But otherwise, not a bad attempt.

I want to post or [tab]
guest
You may want to rate the tab now too:
select rating
Please do not post tabs as comments. Select "correction" instead!