Oops, an error
Loading. Please wait.

Gardens Of The Sinner Tab

version 1
version 1

Whole song

Interactive

2,275 views 1 this week
no commentswrite comment
1 2 3 4 5
please rate
add to favorites
launch autoscroll
font size
0
reset
how to read this tab
guitar tuner
Autoscroll
slow
fast
+/-
esc
set tempo
stop
Help us to improve Ultimate-Guitar.com Take our survey!
×
Author
Band : Gamma Ray
Album: POWERPLANT
Song : GARDENS OF THE SINNER
[Words by Zimmermann/Hansen Music by Zimmermann]


[Transcripted by L-X]

Notations :
. : palm muting (or timing)
>^ : bend 
~~ = vibrate 
> = accentuate

Tunning : down 1/2 step

INTRO GUIT.1 & 2

e||GUIT1(time 1:2)-.-------.-------.-------.-------.-------.-------||
B||----------------------------------------------------------------||
G||*--------------------------------------------------------------*||
D||*13~----13p11\9-11~------11p9\8-9~--------9p8\6-8~--------8p6\4*||
A||----------------------------------------------------------------||
E||----------------------------------------------------------------|| 
||
e||GUIT2---.-------.-------.-------.-------.-------.-------.-------||
B||----------------------------------------------------------------||
G||*|-------------------------------------------------------------*||
D||*6-------------------------------------------------------------*||
A||-6--------------------------------------------------------------||
E||-4--------------------------------------------------------------||


e|GUIT2(time 1:1)-.-------.-------.-------.-------.-------.-------|
B|------------------------|-------------------------------|-------|
G||-------|-------|-------8-------|-------|-------|-------8-------|
D|6-------4-------2-------8-------6-------4-------2-------8-------|
A|6-------4-------2-------6-------6-------4-------2-------6-------|
E|4-------2-------0---------------4-------2-------0---------------| 

 

e|GUIT2(time 1:1)-.-------.-------.-------.-------.-------.-------|
B|----------------------------------------------------------------|
G|----------------------------------------------------------------|
D|------------------------>------------------------------->-------|
A|>------->------->-------66666666>------->------->-------66666666|
E|444444442222222200000000--------444444442222222200000000--------| 
P.M.[............................................................]


e|GUIT1(time 1:1)-.-------.------|.-------.-------.-------.-------|
B|                               |--------------------------------|
G|                               ||---|-------|---|---------------|
D|                               |9---6---|---9---8~--------------|
A|                               |--------7-----------------------|
E|                               |--------------------------------|
||
e|GUIT2(time 1:1)-.-------.-------.-------.-------.-------.-------|
B|----------------------------------------------------------------|
G|--------------------------------|---------------|---------------|
D|--------------------------------2---------------4---------------|
A|>------->------->------->-------2---------------4---------------|
E|444444446666666677777777999999990---------------2---------------| 
P.M.[............................] 


RIFF 

e|.-------.-------.-------.-------.-------.-------|
B|-------------------13-13------------------13-13-|
G|-------------------15>^1------------------15>^1-|
D|------------------------------------------------|
A|------------------------------------------------|
E|------------------------------------------------|
||
e|.-----.-----.-----.-----.-----.-----.-----.-----|
B|------------------------------------------------|
G|------------------------------------------------|
D|------------------|--|--------------------|--|--|
A||-----|-----|-----10-10-|-----|-----|-----10-10-|
E|7-78887-78887-78888--8--7-78887-78887-78888--8--| 
P.M.[..............]      [................] 

 


 As the heat is rising,        out there in the past         Fallen angels calling,
e|GUIT1-.-----.-----.-----.-----.-----.-----.-----.-----.-----.-----.-----|
B|------------------------------------------------------------------------|
G|------------------------------------------------------------------------|
D||-----|-----|-----|-----|-----|-----|-----|-----|-----|-----|-----|-----|
A|9-----9-----9-----9-----9-----9-----9-----9-----9-----9-----9-----9-----|
E|7-77777-77777-77777-77777-77777-77777-77777-77777-77777-77777-77777-7777|
P.M.[..]  [..]  [..]  [..]  [..]  [..]  [..]  [..]  [..]  [..]  [..]  [..] 



 They have come...                        out of the dark
e|GUIT1-.-----.-----.-----.-----.-----.-----.-----.-----.-----.-----.-----|
B|------------------------------------------------------------------------|
G|7-----------------------------------------------------------------------|
D|7-----------7-----------------------------|-|-|-------------------------|
A|5-----------7-----------|-----|-----|-----5-5-7---------------------1111|
E|------------5-----------2-23332-23332-23333-3-5-777777777777777777779999|
                      P.M.[................]      [..................] 

 

                        Then the horsemen...   everything grows cold
e|GUIT1-.-----.-----.-----.-----.-----.-----.-----.-----.-----.-----.-----|
B|------------------------------------------------------------------------|
G|------------------------------------------------7-----------------------|
D|------------------------9-----------------------7-----------7-----------|
A|------------------------9-----------------------5-----------7-----------|
E|7777777777777777777777777-----------------------------------5-----------| 

 

 Now their armies march in,  out there from the underworld 
e|GUIT1-.-----.-----.-----.-----.-----.-----.-----.-----.-----.-----.-----|
B|------------------------------------------------------------------------|
G|------------------------7-----------------------|
D|9-----------------------7-----------7-----------|
A|9-----------------------5-----------7-----------|
E|7-----------------------------------5-----------| 

 

BRIDGE

I do     not   want    my    eyes   to    see,         I nev    -er
e|GUIT1--.------.------.------.------.------.------.------.------.------|
B|----------------------------------------------------------------------|
G|----------------------------------------------------------------------|
D|----------------------------------------------------------------------|
A||------|------|------|------|------|------|------|------|------|------|
E|1077777107777710777771077777107777710777771077777107777710777771077777| 

 want   -ed     to     be   -lieve 
e|GUIT1--.------.------.------.------.------|
B|------------------------------------------|
G|----------------------------|-------------|
D|----------------------------4-------------|
A||------|------|------|------4-------------|
E|10777771077777107777710777772-------------| 

 

REFRAIN

Take me to the gardens of the sinner,           Bury  me  and
e|GUIT1-.-----.-----.-----.-----.-----.-----.-----.-----.-----|
B||-----------------------------------------------------------|
G|7-----------|-----------|-----------|-----------|-----------|
D|7-----------7-----------9-----------4-----------5-----------|
A|5-----------7-----------9-----------4-----------5-----------|
E|------------5-----------7-----------2-----------3-----------| 

let me rest in peace                Now the time of truth has come for 
e|GUIT1-.-----.-----.-----.-----.-----.-----.-----.-----.-----|
B||-----------------------------------|-----------------------|
G|7-----------|-----------------------7-----------|-----------|
D|7-----------7-----------------------7-----------7-----------|
A|5-----------7-----------------------5-----------7-----------|
E|------------5-----------555555555555------------5-----------| 
                      P.M.[..........]  


  e  -very  -one    The fallen angel stands  in  victory         Victory!!
e|GUIT1-.-----.-----.-----.-----.-----.-----.-----.-----.-----.-----.---|
B|----------------------------------------------------------------------|
G||-----|-----|-----------|-----------|---------------------------------|
D|9-----7-----5-----------5-----------7-----------------------------|-|-|
A|9-----7-----5-----------5-----------7-----------|-----|-----|-----5-7-|
E|7-----5-----3-----------3-----------5-----------2-23332-23332-23333-5-| 
                                              P.M.[................] 

e|.-----.-----.-----.-----.-----.-----.-----.-----|
B|------------------------------------------------|
G|------------------------------------------------|
D|------------------|--|--------------------|--|--|
A||-----|-----|-----10-10-|-----|-----|-----10-10-|
E|7-78887-78887-78888--8--7-78887-78887-78888--8--| 
P.M.[..............]      [................]
Suggest correction
Give kudos to tab author, rate the tab!
1 2 3 4 5
comments
print report bad tab
guest
You may want to rate the tab now too:
select rating
Wanna post a correction for this tab? Suggest correction