Oops, an error
Loading. Please wait.

Men Martians And Machines Bass Tab

version 1
version 1

Whole song

Interactive

94 views 1 this week
no commentswrite comment
1 2 3 4 5
please rate
add to favorites
launch autoscroll
font size
0
reset
guitar tuner
Autoscroll
slow
fast
+/-
esc
set tempo
stop
Help us to improve Ultimate-Guitar.com Take our survey!
×
Difficulty
Tuning
intermediate
D# G# C# F# A# D#
Men, Martians And Machines                            


                                                                       Gamma Ray
Dirk



              H        E  E  S S S S    H.           S S S S  
F#||-------|-------------------------|-----------------------|
C#||-------|-------------------------|-----------------------|
G#||-------|-------------------------|-----------------------|
D#||-------|--5--------3--5--5---0-1-|--L------------5-5-3-5-|


  H        E  E  S S S S    H.           S S S S  
-------------------------|-----------------------|
-------------------------|-----------------------|
-------------------------|-----------------------|
--L--------3--5--5---0-1-|--L------------5-5-3-5-|


  S S S S S S S S S S S S S S S S    S S S S S S S S S S S S S S S S  
----------------------------------|----------------------------------|
----------------------------------|----------------------------------|
----------------------------------|----------------------------------|
--L-5-5-5-5-5-5-5-5-5-5-5-5-5-5-5-|--1-1-1-1-1-1-1-1-1-1-1-1-1-1-3-5-|


  S S S S S S S S S S S S S S S S    S S S S S S S S S  S S S S S S S  
----------------------------------|-----------------------------------|
----------------------------------|------------------3h-5-5-5-5-3-0-2-|
----------------------------------|-----------------------------------|
--5-5-5-5-5-5-5-5-5-5-5-5-5-5-5-3-|--L-3-3-3-3-3-3-3------------------|


  E  S S S S S S S S S S S S S S    E  S S S S S S S S S S S S S S  
---------------------------------|---------------------------------|
--L------------------------------|-----------------------------5---|
-------------------------5---5-7-|--L----------------------------7-|
-----0-0-0-0-0-0-0-0-0-0---------|-----0-0-0-0-0-0-0-0-0-0-5-7-----|


  E  S S S S S S S S S S S S S S    E  S S S S S S S S S S E  S S  
---------------------------------|--------------------------------|
---------------------------------|-------------------------3--0-2-|
--L----------------------5---5-7-|--L-----------------------------|
-----0-0-0-0-0-0-0-0-0-0---------|-----0-0-0-0-0-0-0-0-0-0--------|


  E  S S S S S S S S S S S S S S    E  S S S S S S S S S S E  S S  
---------------------------------|--------------------------------|
--L------------------------------|--------------------------------|
-------------------------5---5-7-|--L-------------------------7-5-|
-----0-0-0-0-0-0-0-0-0-0---------|-----0-0-0-0-0-0-0-0-0-0-0------|


  S S S S S S S S S  S S  S S  S S S    E  S S S S S S S S S S E  S S  
-------------------------------------|--------------------------------|
-------------------------------------|--------------------------------|
--L-5-5-5-5-5-5-5-5p-0-4p-0-2p-0-----|-----7---------------7---5--5-7-|
---------------------------------0-0-|--L----0-0-0-0-0-0-0---0--------|


    E  S S S S S S S S S S S S S S    E  S S S S S S S S S S S S S S  
|----------------------------------|---------------------------------|
|*---------------------------------|-----------------------------5---|
|*--L----------------------5---5-7-|--L----------------------------7-|
|------0-0-0-0-0-0-0-0-0-0---------|-----0-0-0-0-0-0-0-0-0-0-5-7-----|


  E  S S S S S S S S S S S S S S    E  S S S S S S S S S S S S S S  
---------------------------------|---------------------------------|
---------------------------------|-------------------------3-3-0-2-|
--L----------------------5---5-7-|--L------------------------------|
-----0-0-0-0-0-0-0-0-0-0---------|-----0-0-0-0-0-0-0-0-0-0---------|


  E  S S S S S S S S S S S S S S    E  S S S S S S S S S S E  S S  
---------------------------------|--------------------------------|
--L------------------------------|--------------------------------|
-------------------------5---5-7-|--L-------------------------7-5-|
-----0-0-0-0-0-0-0-0-0-0---------|-----0-0-0-0-0-0-0-0-0-0-0------|


  S S S S S S S S S  S S  S S  S S S    E  S S S S S S S S E  S S S S  
-------------------------------------|--------------------------------|
-------------------------------------|--------------------------------|
--L-5-5-5-5-5-5-5-5p-0-4p-0-2p-0---7-|--L------------------7--7-7-----|
---------------------------------0---|-----0-0-0-0-0-0-0-0--------0-5-|


  E  S S S S S S E  E  S  S S S    E  S S S E.  E  E  E  S S  
--------------------------------|----------------------------|
--------------------------------|---------------3--2---------|
--------------------------------|---------------------5--3-0-|
--L--5-5-5-5-5-7-8--7--7p-5-3-1-|--L--1-1-1-1----------------|


  E  S S S S S S E  E  E  S S    S S E  S S E  S  S E  S  S E   
------------------------------|--------------------------------|
------------------------------|----------------3h-5-5--5p-3----|
--L--0-0-0-0-0-2-3--2--0------|-----------------------------5--|
--------------------------3-3-|--L-3-3--3-3-3------------------|


  E  E  S S S S E  E  S S E     E  E  S S S S S S E  S S E   
-----------------------------|------------------------------|
-----------------------------|------------2-----------------|
-----------------------------|--3--3--3-3-------------------|
--5--5--5-5-5-1-L--1--1-1-1--|--------------3-L-3-3--3-3-3--|


  E  E  S S E  E  E  S S S S    S  S S  S S  S  S S S  S S  S S  S  E   
-----------------------------|-------1h-2-4h-5p-4--------1h-2-4h-5p-4--|
--------3-2--------------3-2-|--Lh-3--------------2-Lh-3---------------|
------------3--5--5--5-5-----|-----------------------------------------|
--1--1-----------------------|-----------------------------------------|


  S S S S S S S S S  S S S S S S S    S S S S S S S S S S S S S S S S  
-----------------------------------|----------------------------------|
-----------------------------------|------------------------4-2-0-----|
--2-2-2-2-2-2-2-2-0h-2-2-2-2-0-2---|------------------2-4-5-------4-2-|
---------------------------------3-|--L-3-3-3-3-3-3-3-----------------|


  S S S S S S S S S  S S S S  S S S    S S S S S S S S S S S S S S S S    
------------------------------------|-----------------------------------||
------------------------------------|------------------------4-2-0---2-*||
--L-2-2-2-2-2-2-2-0h-2-2-2-2p-0-2---|------------------2-4-5-------4---*||
----------------------------------3-|--L-3-3-3-3-3-3-3------------------||


  S S S S S S S S S S S S S S S S    W                   E  E  H.            
----------------------------------|-------------------|---------------------|
------------------------4-2-0-----|-------------------|---------------------|
------------------2-4-5-------4---|-------------------|---------------------|
--3-3-3-3-3-3-3-3---------------0-|--L----------------|--0--0--0------------|


  W                   E  E  S E.  S S E  Q       E  E  S E.  S S E  Q     
-------------------|--------------------------|--------------------------|
-------------------|--------6------------6----|--------6------------6----|
-------------------|--------------------------|--------------------------|
--L----------------|--4--4----4---L-4-4-------|--4--4----4---L-4-4-------|


  E  E  S E.  S S E  Q       E  E  Q    E  S S S S S S  
--------------------------|----------------------------|
--------6------------6----|--------6-------6-6-6-6-6-6-|
--------------------------|----------------------------|
--4--4----4---L-4-4-------|--4--4----------------------|


  E  E  S S S S S S S S S S S S    E  E  S E.  S S S S S S S S  
--------------------------------|------------------------------|
--------------------------------|------------------------------|
--0--0--0-0-0-0-L-0-0-0-0-0-0---|----------------------------0-|
------------------------------1-|--L--1--1-1---1-1-1-1-1-1-0---|


  E  E  S S S S S S E  S E  S    S S E  S S E  S  S S S S S S S  
------------------------------|---------------------------------|
------------------------------|----------------3h-5-5-5-5-3-0-1-|
--L--0--0-0-0-0-3-3-2--3-0----|---------------------------------|
----------------------------3-|--L-3-3--3-3-3-------------------|


  S S S S S S S S S S S S E  S S    S S S S S S S S S S S S E  S S  
---------------------------------|---------------------------------|
---------------------------------|---------------------------------|
--7-------7-------7-------5--5-7-|--L-------7-------7-------5--5-7-|
----0-0-0---0-0-0---0-0-0--------|----0-0-0---0-0-0---0-0-0--------|


  S S S S S S S S S S S S E  S S    S S S S S S S S S S S S E  S S  
---------------------------------|---------------------------------|
---------------------------------|---------------------------------|
--L-------7-------7-------5--5-7-|--L-------7-------7-------5--5-7-|
----0-0-0---0-0-0---0-0-0--------|----0-0-0---0-0-0---0-0-0--------|


  S S S S S S S S S S S S E  S S    S S S S S S S S S S S S E  S S  
---------------------------------|---------------------------------|
---------------------------------|---------------------------------|
--L-------7-------7-------5--5-7-|--L-------7-------7-------5--5-7-|
----0-0-0---0-0-0---0-0-0--------|----0-0-0---0-0-0---0-0-0--------|


  S S S S S S S S S S S S E  S S  
---------------------------------|
---------------------------------|
--L-------7-------7-------5--5-7-|
----0-0-0---0-0-0---0-0-0--------|


  |-6-| |-6-| |-6-| |-6-|  |--6--|  |--6--|  |--6--|  |--6--|  
  S S S S S S S S S S S S  S  S  S  S  S  S  S  S  S  S  S  S  
--------------------------------------------------------------|
--------------------------------------------------------------|
--7-7-7-7-7-7-7-7-7-7-7-7-10-10-10-10-10-10-10-10-10-10-10-10-|
--------------------------------------------------------------|


  |-6-| |-6-|  |--6--|  |--6--| |-6-| |-6-|          
  S S S S S S  S  S  S  S  S  S S S S S S S S S S S  
----------------------------------------------------|
--------------------------------7-7-7-7-7-7-9-9-9---|
--7-7-7-7-7-7-10-10-10-10-10-10---------------------|
--------------------------------------------------5-|


  E  S S S S S S E  E  S  S S S    E  S S S E.  E  E  E  S S  
--------------------------------|----------------------------|
--------------------------------|---------------3--2---------|
--------------------------------|---------------------5--3-0-|
--L--5-5-5-5-5-7-8--7--7p-5-3-1-|--L--1-1-1-1----------------|


  E  S S S S S S E  E  E  S S    S S E  S S E  S  S E  S  S E   
------------------------------|--------------------------------|
------------------------------|----------------3h-5-5--5p-3----|
--L--0-0-0-0-0-2-3--2--0------|-----------------------------5--|
--------------------------3-3-|--L-3-3--3-3-3------------------|


  E  E  S S S S E  E  S S E     E  E  S S S S S S E  S S E   
-----------------------------|------------------------------|
-----------------------------|------------2-----------------|
-----------------------------|--3--3--3-3-------------------|
--5--5--5-5-5-1-L--1--1-1-1--|--------------3-L-3-3--3-3-3--|


  E  E  S S E  E  E  S S S S    S  S S  S S  S  S S S  S S  S S  S  E   
-----------------------------|-------1h-2-4h-5p-4--------1h-2-4h-5p-4--|
--------3-2--------------3-2-|--2h-3--------------2-Lh-3---------------|
------------3--5--5--5-5-----|-----------------------------------------|
--1--1-----------------------|-----------------------------------------|


  E  E  Q    E  E  S S S S    H.           S S S S    H        E  E  S S S S  
---------------------------|-----------------------|-------------------------|
---------------------------|-----------------------|-------------------------|
--0------------------------|-----------------------|-------------------------|
----------------5--5---0-1-|--L------------5-5-3-5-|--L--------3--5--5---0-1-|


  H.           S S S S    S S S S S S S S S  S S S S  S  S S  
-----------------------|-------------------------------------|
-----------------------|-------------------------------------|
---------------3-3-3-2-|--L-2-2-2-2-2-2-2-0h-2-2-2-2p-0h-2---|
--L--------------------|-----------------------------------3-|


  S S S S S S S S S S S S S S S S    S S S S S S S S S  S S S S  S  S S  
----------------------------------|-------------------------------------|
------------------------4-2-0-----|-------------------------------------|
------------------2-4-5-------4-2-|--L-2-2-2-2-2-2-2-0h-2-2-2-2p-0h-2---|
--L-3-3-3-3-3-3-3-----------------|-----------------------------------3-|


  S S S S S S S S S S S S S S S S    S S S S S S S S S  S S S S  S  S S  
----------------------------------|-------------------------------------|
------------------------4-2-0-----|-------------------------------------|
------------------2-4-5-------4-2-|--L-2-2-2-2-2-2-2-0h-2-2-2-2p-0h-2---|
--L-3-3-3-3-3-3-3-----------------|-----------------------------------3-|


  S S S S S S S S S S S S S S S S    S S S S S S S S S  S S S S  S  S S  
----------------------------------|-------------------------------------|
------------------------4-2-0-----|-------------------------------------|
------------------2-4-5-------4-2-|--L-2-2-2-2-2-2-2-0h-2-2-2-2p-0h-2---|
--L-3-3-3-3-3-3-3-----------------|-----------------------------------3-|


  S S E  Q    S S S S S S S S    H        S S S S S S S S  
------------------------------|---------------------------|
---------5------5-5-5-5-4-0-2-|--L--------L-0-0-0-0-------|
------------------------------|---------------------4-0-2-|
--L-3-3-----------------------|---------------------------|


  Q    Q    H          
---------------------||
---------------------||
--L------------------||
---------------------||




Duration Legend
---------------
W - whole
H - half
Q - quarter
E - 8th
S - 16th
T - 32nd
X - 64th
. - note dotted
|-n-|  - n-tuplets


Tablature Legend
----------------
L - tied note
x - dead note
g - grace note
(n) - ghost note
> - accentuded note
NH - natural harmonic
AH - artificial harmonic
TH - tapped harmonic
SH - semi harmonic
PH - pitch harmonic
h - hammer on
p - pull off
b - bend
br - bendRelease
pb - preBend
pbr - preBendRelease
brb - bendReleaseBend
\n/ - tremolo bar dip
\n - tremolo bar dive
-/n - tremolo bar Release up
/n\ - tremolo bar inverted dip
/n - tremolo bar return
-\n - tremolo bar Release down
S - shift slide
s - legato slide
/ -  slide into from below or out of upwards
\ -  slide into from above or out of downwards
~ - vibrato
W - wide vibrato
tr - trill
TP - tremolo picking
T - tapping
S - slap
P - pop
< - fade in
^ - brush up
v - brush down
Suggest correction
What's this?
You can suggest a correction to this tab. Community and Mods will review your correction and vote to approve or reject it.
comments
We did not receive enough feedback on this tab! Please rate:
print report bad tab
1 2 3 4 5
guest
You may want to rate the tab now too:
select rating
Please do not post tabs as comments. Select "correction" instead!