Oops, an error
Loading. Please wait.

New World Order Bass Tab

version 1
version 1

Whole song

Interactive

1,056 views 3 this week
no commentswrite comment
1 2 3 4 5
please rate
add to favorites
launch autoscroll
font size
0
reset
guitar tuner
Autoscroll
slow
fast
+/-
esc
set tempo
stop
Help us to improve Ultimate-Guitar.com Take our survey!
×
Author
Difficulty
novice
----------------------------------------------------------------------------------
			     NEW WORLD ORDER - GAMMA RAY
----------------------------------------------------------------------------------

Song Name: New World Order
Artist: Gamma Ray
Album: No World Order (2001)
Author: Kai Hansen
Tuning: Half-step down (Eb Ab Db Gb)

Tabbed by Sandstorm
E-Mail: sandstorm@fastwebnet.it
                                                 x2
Gb|-----|-----|-----------------------------------|
Db|-----|-----|o---------------------------------o|
Ab|-----|-----|o-0---0---0---0---0---0---0---0---o|
Eb|-----|-----|-----------------------------------|

Gb|------------------------------------|
Db|-----5---------7-5-------5----------|
Ab|-5-7---7-5-3-0-----7-5-7---7-5-3-0--|
Eb|------------------------------------|
                                                                      x4
Gb|--------------------------------------------------------------------|
Db|o-------------------------------------------------------5----------o|
Ab|o-0-0-0-0-0-0-0-0-0-0-0-0-0-0-0-0-0-0-0-0-0-0-0-0-0-5-7---7-5-3-0--o|
Eb|--------------------------------------------------------------------|

"On wings of tomorrow we're coming to fly..."                        x2
Gb|-------------------------------------------------------------------|
Db|o-----------------------------------------------------------------o|
Ab|o-----------------------------------------------------------------o|
Eb|--3-3-3-3-3-3-3-3-3-3-3-3-3-3-3-3-3-3-3-3-3-3-3-3-3-3-3-3-3-3-3-3--|

Gb|------------------------------------------------------------------|
Db|-------------------------------------------------------5----------|
Ab|-0-0-0-0-0-0-0-0-0-0-0-0-0-0-0-0-0-0-0-0-0-0-0-0-0-5-7---7-5-3-0--|
Eb|------------------------------------------------------------------|

"We're shaking the chains off the world..."                          x2
Gb|-------------------------------------------------------------------|
Db|o-----------------------------------------------------------------o|
Ab|o-----------------------------------------------------------------o|
Eb|--3-3-3-3-3-3-3-3-3-3-3-3-3-3-3-3-3-3-3-3-3-3-3-3-3-3-3-3-3-3-3-3--|

Gb|------------------------------------------------------------------|
Db|-------------------------------------------------------5----------|
Ab|-0-0-0-0-0-0-0-0-0-0-0-0-0-0-0-0-0-0-0-0-0-0-0-0-0-5-7---7-5-3-0--|
Eb|------------------------------------------------------------------|


"This is the time of the ending..."       x2
Gb|----------------------------------------|
Db|o--------------------------------------o|
Ab|o-7-777-777-777-5-7-777-777-777-3--5---o|
Eb|----------------------------------------|

                     "On wings of yesterday we're gonna die..."
Gb|-----------------------------------------------------------------------------------|
Db|-.-----------------.---------------.---------------.-------------------------------|
Ab|-0-0-0-0-0-0-0-0-0-3-3-3-3-3-3-3-3-5-5-5-5-5-5-5-5-7-7-7-7-7-7-7-7-7-7-7-7-7-7-7-7-|
Eb|-----------------------------------------------------------------------------------|

Gb|---------------------------------|
Db|-.---------------.---------------|
Ab|-3-3-3-3-3-3-3-3-5-5-5-5-5-5-5-5-|
Eb|---------------------------------|


"This is illumination..."                                    x2
Gb|-----------------------------------------------------------|
Db|o---------------------------------------------------------o|
Ab|o-0-0-0-0-0-0-0-0-0-0-0-0-0-0-0-0--3-3--8-8------------5--o|
Eb|--------------------------------------------6-6--5-5-------|

                                                                      x2
Gb|--------------------------------------------------------------------|
Db|o-------------------------------------------------------5----------o|
Ab|o-0-0-0-0-0-0-0-0-0-0-0-0-0-0-0-0-0-0-0-0-0-0-0-0-0-5-7---7-5-3-0--o|
Eb|--------------------------------------------------------------------|

"We live inside society..."
Gb|---------------------------------------------------------------------------------|
Db|-.---------------.---------------.---------------.-------------------------------|
Ab|-0-0-0-0-0-0-0-0-3-3-3-3-3-3-3-3-5-5-5-5-5-5-5-5-7-7-7-7-7-7-7-7-7-7-7-7-7-7-7-7-|
Eb|---------------------------------------------------------------------------------|

"We plot and we manipulate..."
Gb|---------------------------------------------------------------------------------|
Db|-.---------------.---------------.---------------.---------------------5---------|
Ab|-0-0-0-0-0-0-0-0-3-3-3-3-3-3-3-3-5-5-5-5-5-5-5-5-7-7-7-7-7-7-7-7-7-5-7---7-5-3-0-|
Eb|---------------------------------------------------------------------------------|

"Illumination comes across the world..."
Gb|---------------------------------------------------------------------------------|
Db|-.-----------------------.-----------------------.---------------.---------------|
Ab|-12-12-12-12-12-12-12-12-10-10-10-10-10-10-10-10-9-9-9-9-9-9-9-9-8-8-8-8-8-8-8-8-|
Eb|---------------------------------------------------------------------------------|

"Intimidating silent force..."
Gb|---------------------------------------------------------------------------------|
Db|-.---------------.---------------.---------------.---------------------5---------|
Ab|-0-0-0-0-0-0-0-0-3-3-3-3-3-3-3-3-5-5-5-5-5-5-5-5-7-7-7-7-7-7-7-7-7-5-7---7-5-3-0-|
Eb|---------------------------------------------------------------------------------|


"This is the time of the ending..."       x2
Gb|----------------------------------------|
Db|o--------------------------------------o|
Ab|o-7-777-777-777-5-7-777-777-777-3--5---o|
Eb|----------------------------------------|

                     "On wings of yesterday we're gonna die..."
Gb|-----------------------------------------------------------------------------------|
Db|-.-----------------.---------------.---------------.-------------------------------|
Ab|-0-0-0-0-0-0-0-0-0-3-3-3-3-3-3-3-3-5-5-5-5-5-5-5-5-7-7-7-7-7-7-7-7-7-7-7-7-7-7-7-7-|
Eb|-----------------------------------------------------------------------------------|

Gb|---------------------------------|
Db|-.---------------.---------------|
Ab|-3-3-3-3-3-3-3-3-5-5-5-5-5-5-5-5-|
Eb|---------------------------------|


"This is illumination..."                                    x3
Gb|-----------------------------------------------------------|
Db|o---------------------------------------------------------o|
Ab|o-0-0-0-0-0-0-0-0-0-0-0-0-0-0-0-0--3-3--8-8------------5--o|
Eb|--------------------------------------------6-6--5-5-------|

"We are illuminates..."
Gb|---------------------------------------------------------|
Db|o-------------------------------------------------------o|
Ab|o-0-0-0-0-0-0-0-0-0-0-0-0-0-0-0-0--3-3--8-8--10-10--12--o|
Eb|---------------------------------------------------------|

                                     x8
Gb|-----------------------------------|
Db|o---------------------------------o|
Ab|o-2-2-2-2-2-2-2-2-2-2-2-2-2-2-0-2-o|
Eb|-----------------------------------|
                                                              x4
Gb|------------------------------------------------------------|
Db|o----------------------------------------------------------o|
Ab|o-7-7-7-7-7-7-9-10-10-10-12-10-9-9-9-9-10-10-10-10-9-9-9-9-o|
Eb|------------------------------------------------------------|

Gb|---------------------9---7----6----4--------------------|
Db|---------------------9---7----6----4----7----6--6/7/9---|
Ab|-7-7-7-7-7-7-7-7-----7---5----4----2----7----6--6/7/9---|
Eb|----------------------------------------5----4--4/5/7---|

                  "In the darkness..."               x4
Gb|--9---12---11--------------------------------------|
Db|o-9---12---11--------------------------------------|
Ab|o-7---10----9--------------------------------------|
Eb|---------------------------------------------------|

                     x4
Gb|----------12--11---|
Db|o---------12--11--o|
Ab|o-7-7-7---10---9--o|
Eb|-------------------|
                                                              x4
Gb|------------------------------------------------------------|
Db|o----------------------------------------------------------o|
Ab|o-7-7-7-7-7-7-9-10-10-10-12-10-9-9-9-9-10-10-10-10-9-9-9-9-o|
Eb|------------------------------------------------------------|

"This is illumination..."                                     x3
Gb|------------------------------------------------------------|
Db|o----------------------------------------------------------o|
Ab|o---------------------------------------3-3----------------o|
Eb|--0-0-0-0-0-0-0-0-0-0-0-0-0-0-0-0--3-3-------1-1--0-0--5----|

"We are illuminates..."
Gb|-----------------------------------------------------|
Db|-----------------------------------------------------|
Ab|----------------------------------------3-3--5-5--7--|
Eb|--0-0-0-0-0-0-0-0-0-0-0-0-0-0-0-0--3-3---------------|
                                                                      x3
Gb|--------------------------------------------------------------------|
Db|o-------------------------------------------------------5----------o|
Ab|o-0-0-0-0-0-0-0-0-0-0-0-0-0-0-0-0-0-0-0-0-0-0-0-0-0-5-7---7-5-3-0--o|
Eb|--------------------------------------------------------------------|

Gb|-------------------------------------------------------------------------------------|
Db|-------------------------------------------------------5---------7-5-------5---------|
Ab|-0-0-0-0-0-0-0-0-0-0-0-0-0-0-0-0-0-0-0-0-0-0-0-0-0-5-7---7-5-3-0-----7-5-7---7-5-3-0-|
Eb|-------------------------------------------------------------------------------------|
Suggest correction new What's this?
You can suggest a correction to this tab. Community and Mods will review your correction and vote to approve or reject it.
comments
We did not receive enough feedback on this tab! Please rate:
print report bad tab
1 2 3 4 5
guest
You may want to rate the tab now too:
select rating
Please do not post tabs as comments. Select "correction" instead!