Oops, an error
Loading. Please wait.

Pray Bass Tab

version 1
version 1

Whole song

Interactive

133 views 1 this week
no commentswrite comment
1 2 3 4 5
please rate
add to favorites
launch autoscroll
font size
0
reset
guitar tuner
Autoscroll
slow
fast
+/-
esc
set tempo
stop
Help us to improve Ultimate-Guitar.com Take our survey!
×
Difficulty
Tuning
intermediate
D# G# C# F# A# D#
 Pray


                                                                       Gamma Ray
Dirk

      W                Q    Q       W                Q    Q
F#||-----------------------------|-----------------------------|
C#||-----------------------------|-----------------------------|
G#||-----------------------------|-----------------------------|
D#||-------------------3----5----|--1----------------3----5----|


  W                Q    Q       W                Q    Q
-----------------------------|-----------------------------|
-----------------------------|-----------------------------|
-----------------------------|-----------------------------|
--1----------------3----5----|--1----------------3----5----|


  W                Q    Q       Q    Q    W
-----------------------------|-----------------------------|
-----------------------------|-----------------------------|
--5----------------5----5----|--L--------------------------|
-----------------------------|-------1----L----------------|


                                                                  S
  Q    E.  S E  E  E.  S    Q    Q    H           H        Q.     E
-------------------------|---------------------|----------------------|
-------------------5-----|-------5-------------|----------------------|
--3----L-----3--3--------|--3---------3--------|--3--------L------3h--|
-----------3-----------3-|---------------------|----------------------|


                                                                       S
  Q.     S   S Q    Q       Q    Q    Q    Q       Q    E.  S Q    E.  S
-------------------------|----------------------|-------------------------|
-------------------------|------------5---------|-----------5-------------|
--8------8h-10-----------|-------5---------5----|-------------------------|
---------------8---------|--3-------------------|--3----L-----3----L---3h-|


         S   S
  Q.     E   H            Q    E.  S Q    E  E     H        H
-----------------------|------------------------|--------------------|
-----------------------|------------------------|--------------------|
-----------------------|------------------------|--------------------|
--8------8p--1h--------|--8----L---8-8----8--7--|--5--------3--------|


  H        Q.     E     H        H           H        Q    E  E
---------------------|--------------------|----------------------|
---------------------|--------------------|----------------------|
---------------------|--------------------|----------------------|
--0--------1------3--|--5--------3--------|--0--------1----1--0--|


                                                     |--3--|
  Q.     S S Q.     E     W                     Q    E  E  E  E.  S E  E
-----------------------|-------------------||-----------------------------|
-----------------------|-------------------||*-------------2--------------|
--5------5-3-----------|-------------------||*--3----3--5-----3---3-------|
-------------5------5--|--3----------------||-----------------------3--0--|


  Q    E.  S E  E  E  E     Q    S S S S Q    E.  S    Q    E.  S Q    Q
-------------------------|--------------------------|-----------------------|
-------------------------|-----------2---2----2-----|-----------------------|
-------------------------|--3----3-5---3----------0-|--5----5---7-0----0----|
--1----L---1-1--1--3--0--|--------------------------|-----------------------|


  Q    E.  S S S S S S S S S    S S S S E.  S S S S S Q
-----------------------------|-----------------------------|
-----------------------2-3-5-|--7--------------------------|
-----------------2-3-5-------|-----------------------------|
--3----L---0-3-5-------------|------5-5-5---0-3---3-3-3----|


  S S S S E.  S S S S S E  E     S S S S E.  S S S S S Q
------------------------------|-----------------------------|
------------------------------|-----------------------------|
------------------------------|-----------------------------|
--0---0-0-0---0-1---1-1-1--3--|--5---5-5-5---0-0---0-0-0----|


  S S S S E.  S S S S S Q       S S S S E  E  Q    S S E
-----------------------------|----------------------------|
-----------------------------|-------------7--------------|
--------------0-3---3-3-3----|--5---5-5-5-----------------|
--1---1-1-1------------------|----------------5----5-7-5--|


  H        S S S S E  E       Q    E.  S S S S S S S S S
--------------------------||-----------------------------|
-------------------------*||-----------------------2-3-5-|
-------------------------*||-----------------2-3-5-------|
--3--------3-3-3-3-3--0---||--3----3---0-3-5-------------|


  S S S S S S S S S S S S S S S S    S S S S S S S S S S S S S S E
----------------------------------|---------------------------------|
----------------------------------|---------------------------------|
----------------------------------|----------7-5--------------------|
--5-5-5-5-5-5-5-5-3-3-3-3-3-3-3-3-|--0-0-0-0-----7-5-1-1-1-1-1-1-3--|


  S S S S S S S S S S S S S S S S    S S S S S S S S S S S S S S E
----------------------------------|---------------------------------|
----------------------------------|---------------------------------|
----------------------------------|----------7-5--------------------|
--5-5-5-5-5-5-5-5-3-3-3-3-3-3-3-3-|--0-0-0-0-----7-5-1-1-1-1-1-1-0--|


  S S S S S S E  S S S S S S E     E.  S E.  S E  E  E  E
--------------------------------|--------------------------|
--------------------------------|--------5-----------------|
--5-5-5-5-5-7-5-----------------|--------------------------|
-----------------5-5-5-5-5-5-5--|--3---L-----3-3--3--3--1--|


  H        H           H        H           H        H
--------------------|--------------------|--------------------|
--------------------|--------------------|--------------------|
--------------------|-----------3--------|--5-----------------|
--5--------0--------|--1-----------------|-----------5--------|


  Q    E.  S Q    Q       E.  S Q    Q    S S E     Q    Q    Q    E.  S
-----------------------|-------------------------|-----------------------|
-----------------------|--------7---------2------|-----------------------|
-----------------------|------7-------------2----|------------3----3---3-|
--3----L---3-3----3----|--5----------0--------0--|--1----1---------------|


  Q    E  S S Q    E.  S    S S S S S S S S S S S S S S S S
-------------------------|----------------------------------|
-------------------------|----------------------------------|
--5----5--5-3------------|----------------------------------|
--------------5----5---5-|--6-6-6-6-6-6-6-6-6-6-6-6-6-6-6-6-|


  E  S S Q    Q    Q       S S S S Q    S S S S E  E
------------------------|-----------------------------|
------------------------|-----------------------------|
------------------------|-----------------------------|
--3--3-3-3----3----3----|--3-3-3-3-3------3-3-3-3--0--|


          |--3--|
  E.  T T E  E  E  E  E  E  E     E.  S E.  S E  S S E  E
-------------------------------|---------------------------|
----------------2--------------|---------------------------|
--3---3-3-3--5-----3--3--3-----|---------------------------|
----------------------------0--|--1---1-1---1-1--1-1-3--0--|


  E  S S S S S S Q    Q       Q.     E  Q    Q       Q    E.  S E  S S E  E
---------------------------|----------------------|--------------------------|
-------------2-3-2----2----|-----------------7----|-------5------------------|
--3--3-3-3-5---------------|--5------5------------|--------------------------|
---------------------------|------------5---------|--3--------3-3--3-3-3--0--|


          |--3--|
  E.  T T E  E  E  Q    E  E     H        Q    E  E
------------------------------|----------------------|
----------------4-------------|----------------------|
--5---5-5-5--7-----5----0-----|----------------0-----|
---------------------------2--|--3--------3-------2--|


  Q    S S S S E.  S Q       Q    Q    Q    Q       Q    E  S S
--------------------------|----------------------|--------------|
-----------4-5-4---4-4----|----------------------|--------------|
--5----5-7----------------|--7----7----2----2----|--------------|
--------------------------|----------------------|--5----5--5-5-|


  Q    E.  S E  S S E.  S    E.  S E.  S E  S S E  E     W
--------------------------|---------------------------|-------------------|
-------------5------------|--------7------------------|-------------------|
--3----3---3----3-3-3---3-|--5---5-----5-5--5-5-5--5--|-------------------|
--------------------------|---------------------------|--3----------------|


  W
-------------------||
-------------------||
-------------------||
--L----------------||


Duration Legend
---------------
W - whole
H - half
Q - quarter
E - 8th
S - 16th
T - 32nd
X - 64th
. - note dotted
|-n-|  - n-tuplets


Tablature Legend
----------------
L - tied note
x - dead note
g - grace note
(n) - ghost note
> - accentuded note
NH - natural harmonic
AH - artificial harmonic
TH - tapped harmonic
SH - semi harmonic
PH - pitch harmonic
h - hammer on
p - pull off
b - bend
br - bendRelease
pb - preBend
pbr - preBendRelease
brb - bendReleaseBend
\n/ - tremolo bar dip
\n - tremolo bar dive
-/n - tremolo bar Release up
/n\ - tremolo bar inverted dip
/n - tremolo bar return
-\n - tremolo bar Release down
S - shift slide
s - legato slide
/ -  slide into from below or out of upwards
\ -  slide into from above or out of downwards
~ - vibrato
W - wide vibrato
tr - trill
TP - tremolo picking
T - tapping
S - slap
P - pop
< - fade in
^ - brush up
v - brush down
Suggest correction new What's this?
You can suggest a correction to this tab. Community and Mods will review your correction and vote to approve or reject it.
comments
We did not receive enough feedback on this tab! Please rate:
print report bad tab
1 2 3 4 5
guest
You may want to rate the tab now too:
select rating
Please do not post tabs as comments. Select "correction" instead!