Oops, an error
Loading. Please wait.

We Wont Stop The War bass

version 1
version 1

Whole song

Interactive

13 views 3 this week
no commentswrite comment
1 2 3 4 5
3 more votes to show rating
add to favorites
×
Save as Personal and add changes to this tab that will be seen only by you. Learn more ›
×
You can save this tab as Personal to edit and correct it or add notes. All changes will be seen only by you. Learn more »
launch autoscroll
font size
0
reset
guitar tuner
edit
Autoscroll
slow
fast
+/-
esc
set tempo
stop
[Intro]
G|----------------------------|----------------------------|
D|----------------------------|----------------------------|
A|----------------------------|----------------------------|
E|--0h-2--2--2--5h-2--2--2----|--0h-2--2--2--5h-2--2--2----| (x5)

G|----------------------------|----------------------------|
D|----------------------------|----------------------------|
A|----------------------------|--------------9s------------|
E|--2--2--2--2-----2-----2----|-----2-----2----------------|

[Riff]
G|----------------------------|----------------------------|
D|----------------------------|--------------4s-5--5-------|
A|----------------------------|----------------------------|
E|--0-----2-----x--2--x--x----|--2-----x--x----------------|

G|----------------------------|----------------------------|
D|----------------------------|----------------------------|
A|----------------------------|----------------------------|
E|--0-----2-----x--2--x--x----|--2-----x--x--3-------------|

G|----------------------------|----------------------------|
D|----------------------------|--------------4s-5--5-------|
A|----------------------------|----------------------------|
E|--0-----2-----x--2--x--x----|--2-----x--x----------------|

G|----------------------------|----------------------------|
D|----------------------------|--4s----2-------------------|
A|----------------------------|--------------3--2----------|
E|--0-----2-----x--2--x--x----|--------------------5--0----|

G|----------------------------|----------------------------|
D|----------------------------|--------------4s-5--5-------|
A|----------------------------|----------------------------|
E|--0-----2-----x--2--x--x----|--2-----x--x----------------|

G|----------------------------|----------------------------|
D|----------------------------|----------------------------|
A|----------------------------|----------------------------|
E|--0-----2-----x--2--x--x----|--2-----x--x--3-------------|

G|----------------------------|----------------------------|
D|----------------------------|--------------4s-5--5-------|
A|----------------------------|----------------------------|
E|--0-----2-----x--2--x--x----|--2-----x--x----------------|

G|----------------------------|----------------------------|-------|
D|--4--4--2-----2--------2----|-----2----------------------|-------|
A|-----------4-----4----------|--------4--3--2-------------|-------|
E|----------------------------|-----------------5--2--0----|--2----|

G|----------------------------|
D|----------------------------|
A|----------------------------|
E|--2-----------------2--0----|

[Verse 1]
G|----------------|----------------------------|
D|----------------|----------------------------|
A|----------------|----------------------------|
G|--0--2.-2.-2.---|--2.----2.----x--x--x--5----|

G|----------------|----------------------------|----------------|
D|----------------|----------------------------|----------------|
A|----------------|----------------------------|----------------|
E|--5--2.-2.-2.---|--2.----2.----x--x--x--0----|--0--2.-2.-2.---|

G|----------------------------|----------------|----------------------------|
D|----------------------------|----------------|----------------------------|
A|----------------------------|----------------|----------------------------|
E|--2.----2.----x--x--x--5----|--5--2.-2.-2.---|--2.----2.----x--x--x--0----|

G|----------------|----------------------------|----------------|
D|----------------|----------------------------|----------------|
A|----------------|----------------------------|----------------|
E|--0--2.-2.-2.---|--2.----2.----x--x--x--5----|--5--2.-2.-2.---|

G|----------------------------|----------------|----------------------------|
D|----------------------------|----------------|----------------------------|
A|----------------------------|----------------|----------------------------|
E|--2.----2.----x--x--x--0----|--0--2.-2.-2.---|--2.----2.----x--x--x--5----|

G|----------------------------|----------------------------|
D|----------------------------|----------------------------|
A|----------------------------|----------------------------|
E|--5-----2.----2.-------2.---|--2.-2.-2.----2.-2.-2.-2.---|

[Pre-Chorus]
G|-------|-------|
D|-------|-------|
A|--5----|--7----|
E|-------|-------|

G|----------------------------|----------------------------|-------|-------|
D|----------------------------|----------------------------|-------|-------|
A|----------------------------|--------------2h-3h-2-------|--5----|--7----|
E|--0h-2--0h-2--5h-2--0h-2----|-----2-----2-----------5----|-------|-------|

G|----------------------------|----------------------------|-------|-------|
D|----------------------------|----------------------------|-------|-------|
A|----------------------------|--------------2h-3h-2-------|-------|-------|
E|--0h-2--0h-2--5h-2--0h-2----|-----2-----2-----------5----|--5----|--7----|

G|-------|-------|----------------------------|
D|-------|-------|----------------------------|
A|--5----|--7----|--7-------------------------|
E|-------|-------|----------------------------|

[Riff]
G|----------------------------|----------------------------|
D|----------------------------|--------------4s-5--5-------|
A|----------------------------|----------------------------|
E|--0-----2-----x--2--x--x----|--2-----x--x----------------|

G|----------------------------|----------------------------|
D|----------------------------|----------------------------|
A|----------------------------|----------------------------|
E|--0-----2-----x--2--x--x----|--2-----x--x--3-------------|

G|----------------------------|----------------------------|
D|----------------------------|--------------4s-5--5-------|
A|----------------------------|----------------------------|
E|--0-----2-----x--2--x--x----|--2-----x--x----------------|

G|----------------------------|
D|----------------------------|
A|----------------------------|
E|--0-----2-----x--2--x--x----|

G|----------------------------|
D|----------------------------|
A|----------------------------|
E|--2-----------------2--0----|

[Verse 2]
G|----------------|----------------------------|
D|----------------|----------------------------|
A|----------------|----------------------------|
G|--0--2.-2.-2.---|--2.----2.----x--x--x--5----|

G|----------------|----------------------------|----------------|
D|----------------|----------------------------|----------------|
A|----------------|----------------------------|----------------|
E|--5--2.-2.-2.---|--2.----2.----x--x--x--0----|--0--2.-2.-2.---|

G|----------------------------|----------------|----------------------------|
D|----------------------------|----------------|----------------------------|
A|----------------------------|----------------|----------------------------|
E|--2.----2.----x--x--x--5----|--5--2.-2.-2.---|--2.----2.----x--x--x--0----|

G|----------------|----------------------------|----------------|
D|----------------|----------------------------|----------------|
A|----------------|----------------------------|----------------|
E|--0--2.-2.-2.---|--2.----2.----x--x--x--5----|--5--2.-2.-2.---|

G|----------------------------|----------------|----------------------------|
D|----------------------------|----------------|----------------------------|
A|----------------------------|----------------|----------------------------|
E|--2.----2.----x--x--x--0----|--0--2.-2.-2.---|--2.----2.----x--x--x--5----|

G|----------------------------|----------------------------|
D|----------------------------|----------------------------|
A|----------------------------|----------------------------|
E|--5-----2.----2.-------2.---|--2.-2.-2.----2.-2.-2.-2.---|

[Pre-Chorus]
G|-------|-------|
D|-------|-------|
A|--5----|--7----|
E|-------|-------|

G|----------------------------|----------------------------|-------|-------|
D|----------------------------|----------------------------|-------|-------|
A|----------------------------|--------------2h-3h-2-------|--5----|--7----|
E|--0h-2--0h-2--5h-2--0h-2----|-----2-----2-----------5----|-------|-------|

G|----------------------------|----------------------------|-------|-------|
D|----------------------------|----------------------------|-------|-------|
A|----------------------------|--------------2h-3h-2-------|-------|-------|
E|--0h-2--0h-2--5h-2--0h-2----|-----2-----2-----------5----|--5----|--7----|

G|-------|-------|----------------------------|
D|-------|-------|----------------------------|
A|--5----|--7----|--7-------------------------|
E|-------|-------|----------------------------|

[Solo]
G|----------------------------|
D|----------------------------|
A|----------------------------|
E|--0h-2--0h-2--5h-2--0h-2----|

G|----------------------------|----------------------------|
D|----------------------------|----------------------------|
A|--------------2h-3h-2-------|----------------------------|
E|-----2-----2-----------5----|--0h-2--0h-2--5h-2--0h-2----| (x3)

G|----------------------------|----------------------------|
D|----------------------------|----------------------------|
A|--------------2h-3h-2-------|--------------4h-2----------|
E|-----2-----2-----------5----|--2h-4--2h-4--------2h-4----|

G|----------------------------|----------------------------|-------|
D|----------------------------|----------------------------|-------|
A|--------------4h-2----------|--------------4h-2-----4----|--4----|
E|--2h-4--2h-4--------2h-4----|--2h-4--2h-4--------2-------|-------|

G|----------------------------|----------------------------|
D|----------------------------|----------------------------|
A|--------------4h-2----------|--------------4h-2----------|
E|--2h-4--2h-4--------2h-4----|--2h-4--2h-4--------2h-4----|

G|----------------------------|----------------------------|
D|----------------------------|----------------------------|
A|--------------4h-2----------|--2-------------------------|
E|--2h-4--2h-4--------2h-4----|--------x--2--2-------------|

G|----------------------------|----------------------------|
D|----------------------------|----------------------------|
A|--------------4h-2----------|--------------4h-2----------|
E|--2h-4--2h-4--------2h-4----|--2h-4--2h-4--------2h-4----|

G|----------------------------|-------|----------------------------|
D|----------------------------|-------|----------------------------|
A|--------------4h-2-----4----|--4----|--------------4h-2----------|
E|--2h-4--2h-4--------2-------|-------|--2h-4--2h-4--------2h-4----|

G|----------------------------|----------------------------|----------|
D|----------------------------|----------------------------|----------|
A|--------------4h-2----------|--------------4h-2----------|--2-------|
E|--2h-4--2h-4--------2h-4----|--2h-4--2h-4--------2h-4----|-----2----|

[Break]
G|----------------|----------------------------|----------------|-------|
D|----------------|----------------------------|----------------|-------|
A|----------------|----------------------------|----------------|-------|
E|--4--4----------|--------------x--7----------|--4--4----------|-------|

G|----------------|----------------------------|----------------|
D|----------------|----------------------------|----------------|
A|----------------|----------------------------|----------------|
E|--4--4----------|--------------x--7----------|--4--4----------|

G|--------------------------------------------------------------------------------|
D|--4--6-----------------------------------x-----------9s-------------------------|
A|--------------------------------------------------------------------------------|
E|--------------------------------------------------------------------------------|

G|-----------------------|----------------|----------------------------|
D|-----------------------|----------------|----------------------------|
A|-----------------------|----------------|----------------------------|
E|-----------------------|--4--4----------|--------------x--7----------|

G|----------------|-------|----------------|-------|-------|-------|
D|----------------|-------|----------------|-------|-------|-------|
A|----------------|-------|----------------|-------|-------|-------|
E|--4--4----------|-------|--4--4----------|-------|-------|-------|

[Solo 2]
G|----------------|----------------------------|----------------------------|
D|----------------|----------------------------|----------------------------|
A|----------------|-----------------------0----|--0--x----------------------|
E|--2.-2.-2.-2.---|--2.----2.----0.-1.-2.------|--------2.----2.----2.------|

G|----------------------------|----------------------------|
D|----------------------------|----------------------------|
A|-----------------------0----|--0--x----------------------|
E|--2.----2.----0.-1.-2.------|--------2.----2.----2.------| (x2)

G|----------------------------|----------------|----------------------------|
D|----------------------------|----------------|----------------------------|
A|----------------------------|----------------|-----------------------0----|
E|--2.----2.----2-----2--0----|--0--2.-2.-2.---|--2.----2.----0.-1.-2.------|

G|----------------------------|----------------------------|
D|----------------------------|----------------------------|
A|--0--x----------------------|-----------------------0----|
E|--------2.----2.----2.------|--2.----2.----0.-1.-2.------| (x2)

G|----------------------------|----------------|-------|-------|
D|----------------------------|----------------|-------|-------|
A|--0--x----------------------|----------------|--5----|--7----|
E|--------2.----2.----2.------|--2.-2.-2s------|-------|-------|

G|----------------------------|----------------------------|-------|-------|
D|----------------------------|----------------------------|-------|-------|
A|----------------------------|--------------2h-3h-2-------|--5----|--7----|
E|--0h-2--0h-2--5h-2--0h-2----|-----2-----2-----------5----|-------|-------| (x2)

G|-------|-------|
D|-------|-------|
A|--5----|--7----|
E|-------|-------|

[Pre-Chorus]
G|-------|-------|-------|-------|----------------------------|
D|-------|-------|-------|-------|----------------------------|
A|-------|-------|--5----|--7----|--7-------------------------|
E|--5----|--7----|-------|-------|----------------------------|

[Outro]
G|----------------------------|----------------------------|
D|----------------------------|--------------4s-5--5-------|
A|----------------------------|----------------------------|
E|--0-----2-----x--2--x--x----|--2-----x--x----------------|

G|----------------------------|----------------------------|
D|----------------------------|----------------------------|
A|----------------------------|----------------------------|
E|--0-----2-----x--2--x--x----|--2-----x--x--3-------------|

G|----------------------------|----------------------------|
D|----------------------------|--------------4s-5--5-------|
A|----------------------------|----------------------------|
E|--0-----2-----x--2--x--x----|--2-----x--x----------------|

G|----------------------------|----------------------------|
D|----------------------------|--4s----2-------------------|
A|----------------------------|--------------3--2----------|
E|--0-----2-----x--2--x--x----|--------------------5--0----|

G|----------------------------|----------------------------|
D|----------------------------|--------------4s-5--5-------|
A|----------------------------|----------------------------|
E|--0-----2-----x--2--x--x----|--2-----x--x----------------|

G|----------------------------|----------------------------|
D|----------------------------|----------------------------|
A|----------------------------|----------------------------|
E|--0-----2-----x--2--x--x----|--2-----x--x--3-------------|

G|----------------------------|----------------------------|
D|----------------------------|--------------4s-5--5-------|
A|----------------------------|----------------------------|
E|--0-----2-----x--2--x--x----|--2-----x--x----------------|

G|----------------------------|----------------------------|
D|--4--4--2-----2--------2----|-----2----------------------|
A|-----------4-----4----------|--------4--3--2-------------|
E|----------------------------|-----------------5--2--0----|

G|-------|-------|
D|-------|-------|
A|--2----|--2----|
E|-------|-------|

G|-------|-------|----------------------------|----------------------------|
D|-------|-------|--4--4--2-----2--------2----|-----2----------------------|
A|--2----|--2----|-----------4-----4----------|--------4--3--2-------------|
E|-------|-------|----------------------------|-----------------5--2--0----|

G|----------------|
D|----------------|
A|----------------|
E|--2s------------|


************************************

| h - hammer on
| s - slide
| . - staccato
\ X - dead note

************************************

            
            
Suggest correction
Creating personal tab
Creating personal tab
You can edit any tab online and save it as your Personal.

You can edit, replace or remove any tab part or add personal notes – all changes will be seen only by you.

Personal tabs can be accessed anytime from any device, even offline.
Learn more »
Give kudos to tab author, rate the tab!
1 2 3 4 5
comments
print report bad tab
guest
You may want to rate the tab now too:
select rating
Wanna post a correction for this tab? Suggest correction