Oops, an error
Loading. Please wait.

Al Son Del Dolor Tab

by Gandhi
53 views 1 this week
no commentswrite comment
1 2 3 4 5
3 more votes to show rating
add to favorites
launch autoscroll
font size
0
reset
how to read this tab
guitar tuner
Autoscroll
slow
fast
+/-
esc
set tempo
stop
Al Son del Dolor
Música: Federico Miranda y Massimo Hernandez
Transcripción: David Corrales y Rodolfo Carboni


. La guitarra está afinada en Drop D. De primera a sexta:
  (MI SI SOL RE LA RE)
. Para afinar la sexta en re, debe oírse igual a la
  quinta pero en el sétimo traste.
. El riff del final es más fácil tocarlo sin desafinar,
  por eso está de las dos formas.
. La "b" entre notas significa bend, la "p" pull off y
  la "h" hammer on.


   Intro 0:10  x2

   Pm--------------------------------------------------|
E |---------------------------------|-----------------------|-----|
B |---------------------------------|-----------------------|-----|
G |---------------------------------|-----------------------|-----|
D |-0-5-3-0-2-3-0-5-3-0-2-3-0--2/3~-|-0-5-3-0-2-3-2-3-0-----|-0-0-|
A |-0-5-3-0-2-3-0-5-3-0-2-3-0--2/3~-|-0-5-3-0-2-3-2-3-0-----|-0-0-|
D |-0-5-3-0-2-3-0-5-3-0-2-3-0--2/3~-|-0-5-3-0-2-3-2-3-0-----|-0-0-|


Verso 0:24 x2
----------------------|----------------------|
-*--------------------|--------------------*-|
----------------------|----------------------|
---0-0--0-0--0-0--6-5-|-0-0--0-0--0-0--2-3---|
-*-0-0--0-0--0-0--6-5-|-0-0--0-0--0-0--2-3-*-|
---0-0--0-0--0-0--6-5-|-0-0--0-0--0-0--2-3---|


   Pre Coro 0:51
                         Pm----------------------------|
E |--------------------|-------------------------------|
B |--5-----4------3----|-------------------------------|
G |--4-----3------2----|-------------------------------|
D |--3-----2------1----|-0-5-3-0-2-3-0-5-3-0-2-3-0-2-3-|
A |--3-----2------1----|-0-5-3-0-2-3-0-5-3-0-2-3-0-2-3-|
D |--------------------|-0-5-3-0-2-3-0-5-3-0-2-3-0-2-3-|


                     Pm-------------|
--------------------|------------------------|
--5-----4------3----|------------------------|
--4-----3------2----|------------------------|
--3-----2------1----|-0-5-3-0-2-3-0-3-0---3--|
--3-----2------1----|-0-5-3-0-2-3-0-3-0---3--|
--------------------|-0-5-3-0-2-3-0-3-0---3--|


  *Verso      x1    1:05
  *Pre Coro   x1    1:19

   Coro x2  1:32
                                      Pm--------------------------|
E |----------------------------------|-------------------------------|
B |-*--------------------------------|-----------------------------*-|
G |--------7-------7-------7-------7-|-------------------------------|
D |---0-0--6--0-0--6--0-0--6--0-0--6-|-0-0-00-0-0-0---0-0-00-0-0-0---|
A |-*-0-0--5--0-0--5--0-0--5--0-0--5-|-0-0-00-0-0-0---0-0-00-0-0-0-*-|
D |---0-0-----0-0-----0-0-----0-0----|-0-0-00-0-0-0---0-0-00-0-0-0---|


   Puente x2      1:46  (Con Flanger o Phase)
   Pm-----------------------|        Pm----------------|
E |---------------------------------|---------------------|
B |---------------------------------|---------------------|
G |---------------------------------|---------------------|
D |---------------------------------|---------------------|
A |---------------------------------|---------------------|
D |-0-5-3-0-2-3-0-5-3-0-2-3-0-2/3~--|-0-5-3-0-2-3-2-3-0---|

  *Pre Coro   x1    2:00
  *Coro       x4    2:13

   2:40                                                    *Solo*
    F#5           G#5           A5            B5            C#5
E |--------------------------------------------------------
B |--------------------------------------------------------
G |--------------------------------------------------------
D |-----4------4------6------6------7------7------9------9-
A |-----4------4------6------6------7------7------9------9-
D |-4-4----4-4----6-6----6-6----7-7----7-7----9-9----9-9---


                     D5
-------------------------------------------|
-------------------------------------------|
-------------------------------------------|
-------11--------11--------12--------12----|
-------11--------11--------12--------12----|
-11-11-----11-11-----12-12-----12-12-------|


    E5                        F dim
E |--------------------------------------------|
B |--------------------------------------------|
G |--------------------------------------------|
D |-------14-14-14-14-14-14--15-15-15-15-15---|
A |-------14-14-14-14-14-14--14-14-14-14-14---|
D |-14-14-14-14-14-14-14-14--15-15-15-15-15---|

  *Solo* 2:48

   Dbm
E |-16p12----------12-16p12----------12-16p12-------|
B |-------14----14----------14----14----------14----|
G |----------13----------------13----------------13-|
D |-------------------------------------------------|
A |-------------------------------------------------|
D |-------------------------------------------------|


  D
-17p14----------14-17p14----------14-17p14-------|
-------15----15----------15----15----------15----|
----------14----------------14----------------14-|
-------------------------------------------------|
-------------------------------------------------|
-------------------------------------------------|


   E
E |-19p16----------16-19p16----------16-19p16-------|
B |-------17----17----------17----17----------17----|
G |----------16----------------16----------------16-|
D |-------------------------------------------------|
A |-------------------------------------------------|
D |-------------------------------------------------|


F#
-21p17----------17-21p16-19b(21)~-|
-------19----19-------------------|
----------18----------------------|
----------------------------------|
----------------------------------|
----------------------------------|


     2:55                   x4   Riff A 3:03
E |-----------------------------|------------------------------|
B |-*-------------------------*-|-*--------------------------*-|
G |-----------------------------|------------------------------|
D |-----------------------------|------------------------------|
A |-*-------0---2---2-3-2-0---*-|-*-------1---3---3-4-3-1----*-|
D |---4-4-4---4---4---------5---|---4-4-4---4---4---------6----|


Final del Riff A        3:43
------------------------|--------------------|
------------------------|-*----------------*-|
------------------------|---------------5~---|
------------------------|---------------4~---|
--------1---3---3-4-3~--|-*-----1---3-4-3~-*-|
-4-4-4----4---4---------|---4-4---4----------|


      E |----------------------------|
      B |----------------------------|
      G |----------------------------|
      D |--/11-10~------/6-8~--------|
      A |----------------------------|
      D |----------------------------|

-------------------------------------------------------

Afinación normal (Mi Si Sol Re La Mi)

     2:55                    x4   Riff A 3:03
E |-----------------------------|------------------------------|
B |-*-------------------------*-|-*--------------------------*-|
G |-----------------------------|------------------------------|
D |-----------------------------|------------------------------|
A |-*-------0---2---2-3-2--0--*-|-*-------1---3---3-4-3-1----*-|
E |---2-2-2---2---2----------3--|---2-2-2---2---2---------4----|


Final del Riff A        3:43
------------------------|--------------------|
------------------------|-*----------------*-|
------------------------|---------------5~---|
------------------------|---------------4~---|
--------1---3---3-4-3~--|-*-----1---3-4-3~-*-|
-2-2-2----2---2---------|---2-2---2----------|


            Con Riff A y Wah wah x4 3:16
         E |----------------------------|
         B |----------------------------|
         G |----------------------------|
         D |--/11-10~------/6-8~--------|
         A |----------------------------|
         D |----------------------------|
Suggest correction
Give kudos to tab author, rate the tab!
1 2 3 4 5
comments
print report bad tab
guest
Wanna post a correction for this tab? Suggest correction