Oops, an error
Loading. Please wait.

El Invisible Bass Tab

218 views 1 this week
no commentswrite comment
1 2 3 4 5
3 more votes to show rating
add to favorites
launch autoscroll
font size
0
reset
guitar tuner
Autoscroll
slow
fast
+/-
esc
set tempo
stop
Help us to improve Ultimate-Guitar.com Take our survey!
×
En esta parte suena un bajo y una guitarra
(que hace lo mismo) en tiempos iguales.


G----------------------------------------------------- Intro y versos
D----2-3-4-------------------2-3-4--------------------
A--4--------3-0-3-0---0-3--4--------3-0-3-0---0-3-4---
E-------------------4-----------------------4---------

Coro:
G-----5----------2--------------------
D--3----------0----0------------------  x2
A-------1--3---------3----------------
E-------------------------------------

/...........a.........¬   /.......b..........¬
G--------------------------------------------------
D--0---------3------------0-----0---3--------------  mas dos veces a
A--------3-1---0-1-3--------------1---0-0-1-3------
E----1-3--------------------1-3--------------------

2do. verso:
G--------0---------------------0----------------------------------
D--0-3-4-------3---------0-3-4-------3----------------------------
A----------3-1---1-0-2-4---------3-1---1-0-0-2-4------------------
E-----------------------------------------------------------------

2do. Coro:

G-----5----------2--------------------
D--3----------0----3------------------  x2
A-------1--3---------0----------------
E-------------------------------------

/...........a.........¬   /.......b..........¬
G--------------------------------------------------
D--0---------3------------0-----0---3--------------  mas dos veces a
A--------3-1---0-1-3--------------1---0-0-1-3------
E----1-3--------------------1-3--------------------


Puente:

G--------0---------------------0----------------------------------
D--0-3-4-------3---------0-3-4-------3---------------------------- x1
A----------3-1---1-0-2-4---------3-1---1-0-0-2-4------------------
E-----------------------------------------------------------------

/.......x2........¬
G-------------------------------------------------------------------
D--0-------0-----------------------------------3-----------2--------
A------1-------3-----1---3---5---5---3-5---3-5-----1---3-----3------
E-------------------------------------------------------------------
Outro:

G--------0---------------------0----------------------------------
D--0-3-4-------3---------0-3-4-------3----------------------------  x3
A----------3-1---1-0-2-4---------3-1---1-0-0-2-4------------------
E-----------------------------------------------------------------

/...........a.........¬   /.......b..........¬
G--------------------------------------------------
D--0---------3------------0-----0---3--------------  y se repite hasta
A--------3-1---0-1-3--------------1---0-0-1-3------  hasta el final
E----1-3--------------------1-3--------------------

Costa Rica - !!!!Tiquisia Rock¡¡¡¡

Cualquier comentario, correcion, duda ahi esta mi e-mail
voy a tratar de seguir haciendo más tabs de Gandhi para bajo.
Suggest correction
Give kudos to tab author, rate the tab!
1 2 3 4 5
comments
print report bad tab
guest
You may want to rate the tab now too:
select rating
Wanna post a correction for this tab? Suggest correction