Oops, an error
Loading. Please wait.

Alcohol Bass Tab

version 1
version 1

Whole song

Interactive

16 views 3 this week
no commentswrite comment
1 2 3 4 5
3 more votes to show rating
add to favorites
launch autoscroll
font size
0
reset
guitar tuner
Autoscroll
slow
fast
+/-
esc
set tempo
stop
Help us to improve Ultimate-Guitar.com Take our survey!
×
Author
Difficulty
[Intro]
G|------------------------|------------------------|------------------------|------------------------|
D|------------------------|------------------------|------------------------|------------------------|
A|------------------------|------------------------|------------------------|------------------------|
E|-5-4-0-2----------------|-5-4-0-2----------------|-5-4-0-0----------------|-5-4-0-2----------------|       

[Verse}                         
G|------------------------|------------------------|------------------------|------------------------|
D|------------------------|------------------------|------------------------|------------------------|
A|------------------------|------------------------|------------------------|------------------------|
E|-5-4-0--2-2-2-2-2-2-2-2-|-5-4-0--2-2-2-2-2-2-2-2-|-5-4-0--0-0-0-0-0-0-0-0-|-5-4-0--2-2-2-2-2-2-2-2-|      
                             
G|------------------------|------------------------|------------------------|------------------------|
D|------------------------|------------------------|------------------------|------------------------|
A|------------------------|------------------------|------------------------|------------------------|
E|-5-4-0--2-2-2-2-2-2-2-2-|-5-4-0--2-2-2-2-2-2-2-2-|-5-4-0--0-0-0-0-0-0-0-0-|-5-4-0--2-2-2-2-2-2-2-2-|
       

[Chorus]  ("No Doubt About It...")
G|----------------------------------|----------------------------------|-----------------------------------|
D|------------------4-4-4-4-4-4-4-4-|------------------4-4-4-4-4-4-4-4-|-----------------------------------|
A|-2-2-2-2--5-5-5-5-----------------|-2-2-2-2--5-5-5-5-----------------|-2-2-2-2--5-5-5-5--3-3-3-3-3-3-3-3-|
E|----------------------------------|----------------------------------|-----------------------------------|


[Verse}                         
G|------------------------|------------------------|------------------------|------------------------|
D|------------------------|------------------------|------------------------|------------------------|
A|------------------------|------------------------|------------------------|------------------------|
E|-5-4-0--2-2-2-2-2-2-2-2-|-5-4-0--2-2-2-2-2-2-2-2-|-5-4-0--0-0-0-0-0-0-0-0-|-5-4-0--2-2-2-2-2-2-2-2-|       
                             
G|------------------------|------------------------|------------------------|------------------------|
D|------------------------|------------------------|------------------------|------------------------|
A|------------------------|------------------------|------------------------|------------------------|
E|-5-4-0--2-2-2-2-2-2-2-2-|-5-4-0--2-2-2-2-2-2-2-2-|-5-4-0--0-0-0-0-0-0-0-0-|-5-4-0--2-2-2-2-2-2-2-2-|
       

[Chorus]
G|----------------------------------|----------------------------------|-----------------------------------|
D|------------------4-4-4-4-4-4-4-4-|------------------4-4-4-4-4-4-4-4-|-----------------------------------|
A|-2-2-2-2--5-5-5-5-----------------|-2-2-2-2--5-5-5-5-----------------|-2-2-2-2--5-5-5-5--3-3-3-3-3-3-3-3-|
E|----------------------------------|----------------------------------|-----------------------------------|


[Bridge/Solo]
G|------------------------|------------------------|------------------------|------------------------|
D|------------------------|------------------------|------------------------|------------------------|
A|------------------------|------------------------|------------------------|------------------------|
E|-5-4-0--2-2-2-2-2-2-2-2-|-5-4-0--2-2-2-2-2-2-2-2-|-5-4-0--0-0-0-0-0-0-0-0-|-5-4-0--2-2-2-2-2-2-2-2-|

G|--------------------------------------------------|--------------------------------------------------|
D|--------------------------------------------------|--------------------------------------------------|
A|---------------------------5-5-5-5-5-5--4-4-4-4-4-|---------------------------5-5-5-5-5-5--4-4-4-4-4-|
E|-5-5-5-5-5-5--7-7-7-7-7-7-------------------------|-5-5-5-5-5-5--7-7-7-7-7-7-------------------------|


[Verse}                         
G|------------------------|------------------------|------------------------|------------------------|
D|------------------------|------------------------|------------------------|------------------------|
A|------------------------|------------------------|------------------------|------------------------|
E|-5-4-0--2-2-2-2-2-2-2-2-|-5-4-0--2-2-2-2-2-2-2-2-|-5-4-0--0-0-0-0-0-0-0-0-|-5-4-0--2-2-2-2-2-2-2-2-|       
                             
G|------------------------|------------------------|------------------------|------------------------|
D|------------------------|------------------------|------------------------|------------------------|
A|------------------------|------------------------|------------------------|------------------------|
E|-5-4-0--2-2-2-2-2-2-2-2-|-5-4-0--2-2-2-2-2-2-2-2-|-5-4-0--0-0-0-0-0-0-0-0-|-5-4-0--2-2-2-2-2-2-2-2-|
       

[Chorus]
G|----------------------------------|----------------------------------|-----------------------------------|
D|------------------4-4-4-4-4-4-4-4-|------------------4-4-4-4-4-4-4-4-|-----------------------------------|
A|-2-2-2-2--5-5-5-5-----------------|-2-2-2-2--5-5-5-5-----------------|-2-2-2-2--5-5-5-5--3-3-3-3-3-3-3-3-|
E|----------------------------------|----------------------------------|-----------------------------------|

G|-------------|
D|-------------|
A|-------------|
E|-5-4-0-2-----|
Suggest correction
Give kudos to tab author, rate the tab!
1 2 3 4 5
comments
print report bad tab
guest
You may want to rate the tab now too:
select rating
Wanna post a correction for this tab? Suggest correction