Oops, an error
Loading. Please wait.

Sjamboksa chords

1,357 views 21 this week
3 commentsread comments
1 2 3 4 5
x 6
add to favorites
×
Save as Personal and add changes to this tab that will be seen only by you. Learn more ›
×
You can save this tab as Personal to edit and correct it or add notes. All changes will be seen only by you. Learn more »
launch autoscroll
font size
0
reset
transpose
0
reset
display chords
guitar tuner
edit
Autoscroll
slow
fast
+/-
esc
set tempo
stop
Author
Strumming
There is no strumming pattern for this song yet. and get +5 IQ
SJAMBOKSA - Gang of Youths
tabbed by: ericamcn

C F Dm   (x2)

C                         F
Can I just fight for the winning side
    Dm
And feel that I'm building a
C                    F
Home and a life to behold
                      Dm
Til it's robbed from my sight?

C                        F
Distill our days as we're moving on
     Dm
With warm waves of grain and we'll
C                         F
Drink to the fire and the flame
                        Dm
Like it's sweeter than wine

C F Dm (x2)

    C                       F
You see those lights out on 85?
    Dm
The blue blooded blazing all that
C                        F
Hails the decline of the days
                    Dm
That we traveled in style

    C                       F
But you're no stranger to loneliness
    Dm
And braving the weight while I'm 
C                           F
Dragging my ass through the ward
                Dm
Like a terrible child

Am      F              Dm
All the light is never-ending
                  C F Dm C
Much like you and I
    Am         F                   Dm
And though our pulses never change
                                    C F Dm C
You know, I think that we should try

C F Dm C (x2)

     C                         F
Just know my thoughts are with you tonight
     Dm
Your still beating shadow cozied
C
Up to the dog
         F                       Dm
With the light on for when I get home

    C                        F
And now I've learned what it is to love
         Dm
And I'm a paragon of virtue now
    C
But bullshit aside
        F                      Dm
I'm not living our life on the phone

   C                       F
So lift your hands to the orange sky
Dm
Throwing up the bird sign
         C                        F
And I'll drive like an asshole direct
             Dm
For the old 85

Am         F              Dm
Though our time is never changing
                        C F Dm C
We'll change it on the fly
    Am           F                   Dm
And though your lungs will fight to take you
                               C F Dm C
It doesn't mean we shouldn't try
C F Dm C
Try

RIFF (x3) 
  Em    Am    G     Am       Em     Am    G    Am
e|--------------------------------------------------|
B|--------------------------------------------------|
G|--------------------------------------------------|
D|--------------------------------------------------|
A|-7-5-2-0---------2-0--------7-5-2-0-----------0---|
E|--------------3-------------------------3-1-0-----|

C F Dm (x4)

C

       C
In the thick of my heart
       F
By the skin of my teeth
  Dm
Until I'm forgotten
    C
And covered in weeds
       F                        Dm
And my withering soul is in the sea

            C         F
I will hold on to you
              Dm      C
Hold on to me
            C         F
I will hold on to you
              Dm      C
Hold on to me

RIFF (x2) 
  Am    Dm     G         C     Am    Dm   G     Am
e|--------------------------------------------------|
B|--------------------------------------------------|
G|--------------------------------------------------|
D|-7-5-2-0------5-3-2-0-2-------7-5-2-0----5-3-2----|
A|------------------------3----------------------0--|
E|--------------------------------------------------|

            C         F
I will hold on to you
              Dm      C
Hold on to me
            C         F
I will hold on to you
                    
Hold on to me

RIFF
  Em    Am      G    Am       Em    Am    G    Am
e|--------------------------------------------------|
B|--------------------------------------------------|
G|--------------------------------------------------|
D|--------------------------------------------------|
A|-7-5-2-0---------2-0--------7-5-2-0-----------0---|
E|--------------3-------------------------3-1-0-----|


---not sure if this is 100% correct, suggestions to improve are welcome---
Suggest correction
Creating personal tab
Creating personal tab
You can edit any tab online and save it as your Personal.

You can edit, replace or remove any tab part or add personal notes – all changes will be seen only by you.

Personal tabs can be accessed anytime from any device, even offline.
Learn more »
comments
print report bad tab
3 comments total.
0 reply
lloyd_jeffery 10 Feb 25, 2016 09:00 PM

Awesome!!!!

+3 reply
Nero Galon 365 Apr 30, 2016 08:17 AM

After the second verse there is this

e|----8-5------------8-5----------------------------|
B|--------8-5------------8-5------------------------|
G|------------5--------------7----------------------| X4
D|--------------------------------------------------|
A|--------------------------------------------------|
E|--------------------------------------------------|

Also the really cool lick is something like this

e|---------17----17---------------------------------|
B|---17h-20---20---20--17---------------------------|
G|--------------------------------------------------|
D|--------------------------------------------------| X4
A|--------------------------------------------------|
E|--------------------------------------------------|

And I think instead of this

e|--------------------------------------------------|
B|--------------------------------------------------|
G|--------------------------------------------------|
D|--------------------------------------------------|
A|-7-5-2-0---------2-0--------7-5-2-0-----------0---|
E|--------------3-------------------------3-1-0-----|

It should be this

e|--------------------------------------------------|
B|--------------------------------------------------|
G|---9-9--7-----------------------------------------|
D|----------9-7----5-5--7-9-7-----------------------|
A|--------------------------------------------------|
E|--------------------------------------------------|

0 reply
emmaoswinoswald 21 Apr 17, 2017 04:47 PM

I think that instead of doing the C F Dm twice in a row on the verses and intro, it's a C Fsus2/E Dm, and then C Fsus2 F. I've found that it sounds better.
Fsus2/E:
e= open
B= C
G= open
D= 3
A= 3
E= open

guest
You may want to rate the tab now too:
select rating
Wanna post a correction for this tab? Suggest correction