Oops, an error
Loading. Please wait.

Cut And Dry chords

10 views 3 this week
no commentswrite comment
1 2 3 4 5
3 more votes to show rating
add to favorites
×
Save as Personal and add changes to this tab that will be seen only by you. Learn more ›
×
You can save this tab as Personal to edit and correct it or add notes. All changes will be seen only by you. Learn more »
launch autoscroll
font size
0
reset
transpose
0
reset
simplify chords
display chords
guitar tuner
edit
Autoscroll
slow
fast
+/-
esc
set tempo
stop
Strumming
There is no strumming pattern for this song yet. and get +5 IQ
[Intro]
           C#5          C#5/C        C#5/A       C#5/A
e|---------0---|---------0---|---------0---|--------0---|
B|-------0--0--|-------0--0--|-------0--0--|------0--0--|
G|-----6-----6-|-----6-----6-|-----6-----6-|----6-----6-|
D|---6---------|---6---------|---6---------|--6---------|
A|-4-----------|-3-----------|-0-----------|0-----------|
E|-------------|-------------|-------------|------------|


[Verse 1]
C#5                 A5
Call me up drunk, anytime,
         B5                        E5
call me crying down the telephone.
C#5  
If you just need to hear,
A5
a voice that is near,
B5                            E5
I’ll be looking out for love.
C#5             A5               
And if you ever need to see,
     B5                     E5
how deep the bullet lies,
             C#5
just take a look to the sea,
         A5 
see the waves reach me,
           B5                 E5
I’ll be looking out for love.

[Instrumental]
  C#5   C#5/C   C#5/A }2x

[Verse 2]
C#5              A5  
See the river overflow,
         B5                  E5
see the water start to rise,
C#5
see your feet get wet,
       A5
it’ll rise to your neck,
          B5                  E5
I’ll be looking out for love.
C#5                 A5       
People aren’t just good or bad,
       B5                           E5
but things they do are cut and dry.
C#5
I pride myself on this sense,
A5
on your side of the fence,
        B5                    E5
I’ll be looking out for love.

[Instrumental] 
 C#5   C#5/C   C#5/A }2x

[Solo]
e|-----------------|-------------------------|
B|-14-14-12-14-12--|-12-14-12----------12----|
G|-----------------|----------13-11-13----13-| 4x
D|-----------------|-------------------------|
A|-----------------|-------------------------|
E|-----------------|-------------------------|

[Verse 3]
C#5                 A5
Call me up drunk, anytime,
         B5                        E5
call me crying down the telephone.
C#5  
If you just need to hear,
A5
a voice that is near,
B5                            E5
I’ll be looking out for love.

[Solo]
e|-------------------------------------------|----------------|-----------------|-------------------|
B|-14-14-12-14-12----12-14-12----------12----|----------------|-----------------|-------------------|
G|----------------------------13-11-13----13-|-11-9-9-11/13-13|-11-9-9-11/13-11-|---9-11/13-11-9-9--|
D|-------------------------------------------|----------------|-----------------|-11----------------|
A|-------------------------------------------|----------------|-----------------|-------------------|
E|-------------------------------------------|----------------|-----------------|-------------------|

[Instrumental] 
 C#5   C#5/C   C#5/A }2x

***********************************

| /   Slide up

***********************************
Suggest correction
Creating personal tab
Creating personal tab
You can edit any tab online and save it as your Personal.

You can edit, replace or remove any tab part or add personal notes – all changes will be seen only by you.

Personal tabs can be accessed anytime from any device, even offline.
Learn more »
Give kudos to tab author, rate the tab!
1 2 3 4 5
comments
print report bad tab
guest
You may want to rate the tab now too:
select rating
Wanna post a correction for this tab? Suggest correction