Oops, an error
Loading. Please wait.

Automatic Systematic Habit Bass Tab

1,234 views 3 this week
1 commentread comment
1 2 3 4 5
2 more votes to show rating
add to favorites
launch autoscroll
font size
0
reset
guitar tuner
Autoscroll
slow
fast
+/-
esc
set tempo
stop
Help us to improve Ultimate-Guitar.com Take our survey!
×
Author
Difficulty
novice
This song is very easy and fun to play on bass.
It consists of 5 riffs.

Riff 1 (intro):
G --------------|
D --------------|
A -1~-----------|
E ----4~-2~-1~--|

Riff 2 (verses):
G -----------------|
D -----------------|
A 11111111---------|
E --------22224444-|

Riff 3 (chorus):
G -----------------|
D -----------------|
A 4444----1111-----|
E ----2222----4444-|

Riff 4  (post-chorus):
G --------------------------|
D --------------------------|
A --------------------------|
E 6-6-6-6-6-66-4-4-4-4-4-44-|

At the end of the song it's like this (Riff 5):
G --------------------------|
D --------------------------|
A --------------------------|
E 4-4-4-4-4-42-4-4-4-4-4-42-|

or like something else :D

It's my first tab, so if there are some mistakes - I'm not guilty :D
Suggest correction
Give kudos to tab author, rate the tab!
1 2 3 4 5
comments
print report bad tab
1 comment total.
0 reply
charlesmajora 10 Mar 29, 2013 09:32 AM

Great, thanks!

guest
You may want to rate the tab now too:
select rating
Wanna post a correction for this tab? Suggest correction