Oops, an error
Loading. Please wait.

Bleed Like Me Tab

version 1
version 1

Whole song

Interactive

4,765 views 3 this week
2 commentsread comments
1 2 3 4 5
x 3
add to favorites
launch autoscroll
font size
0
reset
how to read this tab
guitar tuner
Autoscroll
slow
fast
+/-
esc
set tempo
stop
Help us to improve Ultimate-Guitar.com Take our survey!
×
Author
Difficulty
novice
I'm really annoyed no one has tabbed this song so I finally did it myself.  It's my 
tab so sorry in advance if I messed anything up.  This song works really well played on a 
 The guitar part is a bit trickier to play – though pretty easy to work out.

Verse (Play twice):
E ---------------------------------------------------------------------------------|
B----1--1----1--------------2--2----2-----------1--1----1------------2--2----2-----|
G----1--1----1--------------1--1----1-----------1--1----1------------1--1----1-----|
D----------------------------------------------------------------------------------|
A-3--------3----3-------4--------4----4------3--------3----3-------4-------4----4--|
E----------------------------------------------------------------------------------|

“Hey Baby, Can you bleed like me?  Hey Baby, Can you bleed like me?”:

E-----------------------------------------------------------------------------------|
B----------------------------2--2-----2--------------------------------2--2---2-----|
G-------4--4-----4-----------1--1-----1------------4--4----4-----------1--1---1-----|
D-------4--4-----4---------------------------------4--4----4------------------------|
A----2---------2----2-----4---------4-----4-----2---------2----2----4-------4----4--|
E-----------------------------------------------------------------------------------|

Part inbetween each verse:

E-----------------------------------------------------|
B----1-------1-----0-------4----1------1-----0-----4--|
G------1------1------1-------------1-----1-----1------|
D--------1------1------1-------------1-----1-----1----|
A-----------------------------------------------------|
E-----------------------------------------------------|

And that’s pretty much it.  For the part that goes “You should see my scars” just go 
to the verse.  I think this may be a bass part in the actual song because it sounds much 
in it but this is the correct key and correct amount of notes.  Listen to the song for exact rhythm.
Suggest correction
Give kudos to tab author, rate the tab!
1 2 3 4 5
comments
print report bad tab
2 comments total.
0 reply
Luy 61 Jan 29, 2006 01:18 AM

inaccurate.

0 reply
Ohtarwen 51 Jan 29, 2006 04:48 PM

I realized that it needs to be down an octave... I'll try to get to it.

guest
You may want to rate the tab now too:
select rating
Wanna post a correction for this tab? Suggest correction