Oops, an error
Loading. Please wait.

Blood For Poppies tab

by Garbage
4,251 views 1 this week
1 commentread comment
1 2 3 4 5
x 3
add to favorites
×
Save as Personal and add changes to this tab that will be seen only by you. Learn more ›
×
You can save this tab as Personal to edit and correct it or add notes. All changes will be seen only by you. Learn more »
launch autoscroll
font size
0
reset
how to read this tab
guitar tuner
edit
Autoscroll
slow
fast
+/-
esc
set tempo
stop
Author
#----------------------------------PLEASE NOTE--------------------------------#
#This file is the author's own work and represents their interpretation of the#
#song. You may only use this file for private study, scholarship, or research.#
#-----------------------------------------------------------------------------#
#-- File created with Instab - http://www.pconline.com/~smcarey/instab.html --#
#-----------------------------------------------------------------------------#

Author/Artist: Garbage
Title: Blood For Poppies
Transcribed by: (S)Strawberry Fanta

b bend
r release bend
/ slide up
\ slide down
() Bass


Tuning (eb A D G B E), Down ~ 10%, (eb, D) Down ~ 20%
Live Standard Tuning, Down ~ 10%  
Key: (D + C#), Mode D


-----|---------|------------------------------------------------|--|
-----|-3---3---|------------------------------------------------|--|
-----|-3---2---|------------------------------------------------|--|
-----|-0---0---|------------------------------------------------|2x|
-----|---------|-5--5--5---5-5---4b------------------------21b--|--|
(12\)|(11--11)-|-4--4--7---4-7------(11--11--14-11-14--11--14b)-|--|
          

    Intro/Verse                          





----|------------|
----|-3---3-4--4-|
----|-3---3-3--3-|
----|-3---3-1--1-|
----|------------|
----|------------|
        

  Chorus 

            
            
Suggest correction
Creating personal tab
Creating personal tab
You can edit any tab online and save it as your Personal.

You can edit, replace or remove any tab part or add personal notes – all changes will be seen only by you.

Personal tabs can be accessed anytime from any device, even offline.
Learn more »
Give kudos to tab author, rate the tab!
1 2 3 4 5
comments
print report bad tab
1 comment total.
0 reply
Metallilmeister 20 Sep 14, 2013 02:43 PM

Why is it in drop A#?

guest
You may want to rate the tab now too:
select rating
Wanna post a correction for this tab? Suggest correction