Oops, an error
Loading. Please wait.

I Think Im Paranoid Tab

version 1
version 1

Whole song

Interactive

43,315 views 78 this week
6 commentsread comments
1 2 3 4 5
excellent!
x 19
add to favorites
launch autoscroll
font size
0
reset
how to read this tab
guitar tuner
Tab Pro tools
  • play this tab
  • loop segment
  • change instrument
  • show fretboard
  • metronome
×
Best way to learn
"I Think Im Paranoid"
Autoscroll
slow
fast
+/-
esc
set tempo
stop
Contributor
-------------------------------------------------------------------------------
			     I THINK I´M PARANOID - Garbage
-------------------------------------------------------------------------------

by: luigi_cix

This is a cool song, is not that dificult to play... 
Verse

e|--7-----------|----------|
B|-8--8-10------|-8-----10-|
G|---------10-7-|---7-10---|
D|--------------|----------|
A|--------------|----------|
E|--------------|----------| x5


Chorus

  W/ distortion  
e|----------|--------------|
B|----------|---x---x-x----|
G|--x---x-x-|-x-8---8-5----|
D|--5---5-3-|-3-8---8-5----|
A|--5---5-3-|-3-6---6-3----|
E|--3---3-1-|-1------------| x4

e|-----------|----------|---------|
B|---10---11-|----10—11-|--10-11--|
G|-8---------|--8-------|-8-------|
D|-----------|----------|---------|
A|-----------|----------|---------|
E|-----------|----------|---------|

Chorus 2nd part
e|---------------------|----------------------------------|
B|---------------------|----------------------------------|
G|---------------------|9--9--9--9--9--9-9--9—9—9—9—9--9-9|
D|-5--5-5\3--3-3/8--8-8|-x------------------x-------------|
A|-5--5-5\3--3-3/8--8-8|-7------------------7-------------|
E|-3--3-3\1--1-1/6--6-6|----------------------------------|

e|---------------------|------------------|---------------|
B|---------------------|------------------|---------------|
G|--------------------|-7-7--7--7--7--7-7-|-7—7—7—7—7--7-7|
D|-5--5-5\3--3-3/8--8-8|-x----------------|--x------------|
A|-5--5-5\3--3-3/8--8-8|-5----------------|--5------------|
E|-3--3-3\1--1-1/6--6-6|----------------------------------|



Solo 1
e|-----------------|-------------|
B|-----------------|-------------|
G|--12h14*(15)--14-|-14*(15)-12--|
D|-----------------|-------------|
A|-----------------|-------------|
E|-----------------|-------------| x4

Interlude 
e|--------|------|-------|--------|
B|--------|------|-------|--------|
G|--------|------|-------|--------|
D|--------|------|-------|--5-----|
A|-2------|2-----|-2-----|--3-----|
E|-0--\\\-|0--\\\-|-0--\\\-|-\\\----| x2

e|----------|----------|---------------|
B|---10---11|----10--11|—--10\\\\\\\\\\--|
G|-8--------|---8------|--8------------|
D|----------|----------|---------------|
A|----------|----------|---------------|
E|----------|----------|---------------|

Solo 2
e|-------------------|----------------------|
B|---11---11-13///16-|----11----16-16-16-15-|
G|-12--12------------|--12---12-------------|
D|-------------------|----------------------|
A|-------------------|----------------------|
E|-------------------|----------------------| x4

Order
1.	verse
2.	chirus
3.	chorus 2nd part
4.	verse
5.	chorus+ solo 1
6.	chorus 2nd part
7.	interlude
8.	chorus 2nd part
9.	chorus + solo 2
10.	verse x4

any questions give me a buzz: luicix@yahoo.com.mx
comments
print report bad tab
6 comments total. Showing first comments.
-2 reply
mob0222 wrote on August 30 2005, 12:00 am

i love fajaynah!

+1 reply
wes_jett2008 wrote on March 16 2008, 01:01 am

you should tab the chorus guitar that follows the vocal line...its hard to hear,but its the part you play in Rock band.

0 reply
ItalianoDude23 wrote on April 1 2008, 10:56 pm

i have the part wes jett is talking about
on the third string (G string) it goes

-9-10-9-10-9-10-9-10-9-10-9-10-9-10-9-9-9-9-9-9--9-10-9-10-9-10-9-10-9-10-9-10-9-10-7-7-7-7-7-7--7-7-7-7-7-7-



this comes after this part
e|-----------|----------|---------|
B|---10---11-|----10—11-|--10-11--|
G|-8---------|--8-------|-8-------|
D|-----------|----------|---------|
A|-----------|----------|---------|
E|-----------|----------|---------|

I want to post or [tab]
guest
You may want to rate the tab now too:
select rating
Please do not post tabs as comments. Select "correction" instead!