Oops, an error
Loading. Please wait.

I Think Im Paranoid Tab

version 1
version 1

Whole song

Interactive

by Garbage
46,522 views 21 this week
6 commentsread comments
1 2 3 4 5
x 22
add to favorites
launch autoscroll
font size
0
reset
how to read this tab
guitar tuner
backing track
0:00
0:00
Autoscroll
slow
fast
+/-
esc
set tempo
stop
Author
[Verse]
e|------------------|-------------------|
B|------------------|-------------------|
G|----12--10--------|---12---10---------|
D|---9--------10-12-|-------9----10-12--|
A|-10---10--10------|-10--10---10-------|
E|------------------|-------------------| (x5)

[Chorus]
  W/ distortion  
e|----------|--------------|
B|----------|---x---x-x----|
G|--x---x-x-|-x-8---8-5----|
D|--5---5-3-|-3-8---8-5----|
A|--5---5-3-|-3-6---6-3----|
E|--3---3-1-|-1------------| (x4)

e|-----------|----------|---------|
B|---10---11-|----10—11-|--10-11--|
G|-8---------|--8-------|-8-------|
D|-----------|----------|---------|
A|-----------|----------|---------|
E|-----------|----------|---------|

[Chorus] 
(2nd part)
e|---------------------|----------------------------------|
B|---------------------|----------------------------------|
G|---------------------|9--9--9--9--9--9-9--9—9—9—9—9--9-9|
D|-5--5-5\3--3-3/8--8-8|-x------------------x-------------|
A|-5--5-5\3--3-3/8--8-8|-7------------------7-------------|
E|-3--3-3\1--1-1/6--6-6|----------------------------------|

e|---------------------|------------------|---------------|
B|---------------------|------------------|---------------|
G|--------------------|-7-7--7--7--7--7-7-|-7—7—7—7—7--7-7|
D|-5--5-5\3--3-3/8--8-8|-x----------------|--x------------|
A|-5--5-5\3--3-3/8--8-8|-5----------------|--5------------|
E|-3--3-3\1--1-1/6--6-6|----------------------------------|

[Verse]
e|------------------|-------------------|
B|------------------|-------------------|
G|----12--10--------|---12---10---------|
D|---9--------10-12-|-------9----10-12--|
A|-10---10--10------|-10--10---10-------|
E|------------------|-------------------| (x5)

[Chorus]
  W/ distortion  
e|----------|--------------|
B|----------|---x---x-x----|
G|--x---x-x-|-x-8---8-5----|
D|--5---5-3-|-3-8---8-5----|
A|--5---5-3-|-3-6---6-3----|
E|--3---3-1-|-1------------| (x4)

e|-----------|----------|---------|
B|---10---11-|----10—11-|--10-11--|
G|-8---------|--8-------|-8-------|
D|-----------|----------|---------|
A|-----------|----------|---------|
E|-----------|----------|---------|

[Solo 1]
e|-----------------|-------------|
B|-----------------|-------------|
G|--12h14*(15)--14-|-14*(15)-12--|
D|-----------------|-------------|
A|-----------------|-------------|
E|-----------------|-------------| (x4)

[Chorus] 
(2nd part)
e|---------------------|----------------------------------|
B|---------------------|----------------------------------|
G|---------------------|9--9--9--9--9--9-9--9—9—9—9—9--9-9|
D|-5--5-5\3--3-3/8--8-8|-x------------------x-------------|
A|-5--5-5\3--3-3/8--8-8|-7------------------7-------------|
E|-3--3-3\1--1-1/6--6-6|----------------------------------|

e|---------------------|------------------|---------------|
B|---------------------|------------------|---------------|
G|--------------------|-7-7--7--7--7--7-7-|-7—7—7—7—7--7-7|
D|-5--5-5\3--3-3/8--8-8|-x----------------|--x------------|
A|-5--5-5\3--3-3/8--8-8|-5----------------|--5------------|
E|-3--3-3\1--1-1/6--6-6|----------------------------------|

[Interlude]
e|--------|------|-------|--------|
B|--------|------|-------|--------|
G|--------|------|-------|--------|
D|--------|------|-------|--5-----|
A|-2------|2-----|-2-----|--3-----|
E|-0--\\\-|0-\\\-|-0-\\\-|-\\\----| (x2)

e|----------|----------|---------------|
B|---10---11|----10--11|—--10\\\\\\\\\\|
G|-8--------|---8------|--8------------|
D|----------|----------|---------------|
A|----------|----------|---------------|
E|----------|----------|---------------|

[Chorus] 
(2nd part)
e|---------------------|----------------------------------|
B|---------------------|----------------------------------|
G|---------------------|9--9--9--9--9--9-9--9—9—9—9—9--9-9|
D|-5--5-5\3--3-3/8--8-8|-x------------------x-------------|
A|-5--5-5\3--3-3/8--8-8|-7------------------7-------------|
E|-3--3-3\1--1-1/6--6-6|----------------------------------|

e|---------------------|------------------|---------------|
B|---------------------|------------------|---------------|
G|--------------------|-7-7--7--7--7--7-7-|-7—7—7—7—7--7-7|
D|-5--5-5\3--3-3/8--8-8|-x----------------|--x------------|
A|-5--5-5\3--3-3/8--8-8|-5----------------|--5------------|
E|-3--3-3\1--1-1/6--6-6|----------------------------------|

[Chorus]
  W/ distortion  
e|----------|--------------|
B|----------|---x---x-x----|
G|--x---x-x-|-x-8---8-5----|
D|--5---5-3-|-3-8---8-5----|
A|--5---5-3-|-3-6---6-3----|
E|--3---3-1-|-1------------| (x4)

e|-----------|----------|---------|
B|---10---11-|----10—11-|--10-11--|
G|-8---------|--8-------|-8-------|
D|-----------|----------|---------|
A|-----------|----------|---------|
E|-----------|----------|---------|

[Solo 2]
e|-------------------|----------------------|
B|---11---11-13///16-|----11----16-16-16-15-|
G|-12--12------------|--12---12-------------|
D|-------------------|----------------------|
A|-------------------|----------------------|
E|-------------------|----------------------| (x4)

[Verse]
e|------------------|-------------------|
B|------------------|-------------------|
G|----12--10--------|---12---10---------|
D|---9--------10-12-|-------9----10-12--|
A|-10---10--10------|-10--10---10-------|
E|------------------|-------------------| (x4)



************************************

| x  Dead note
| /  Slide up
| \  Slide down
| h  Hammer-on

************************************
Suggest correction
comments
print report bad tab
6 comments total. Showing first comments.
-2 reply
mob0222 10 Aug 29, 2005 08:00 PM

i love fajaynah!

+1 reply
wes_jett2008 505 Mar 15, 2008 09:01 PM

you should tab the chorus guitar that follows the vocal line...its hard to hear,but its the part you play in Rock band.

0 reply
ItalianoDude23 10 Apr 01, 2008 06:56 PM

i have the part wes jett is talking about
on the third string (G string) it goes

-9-10-9-10-9-10-9-10-9-10-9-10-9-10-9-9-9-9-9-9--9-10-9-10-9-10-9-10-9-10-9-10-9-10-7-7-7-7-7-7--7-7-7-7-7-7-


this comes after this part
e|-----------|----------|---------|
B|---10---11-|----10—11-|--10-11--|
G|-8---------|--8-------|-8-------|
D|-----------|----------|---------|
A|-----------|----------|---------|
E|-----------|----------|---------|

guest
You may want to rate the tab now too:
select rating
Wanna post a correction for this tab? Suggest correction