Oops, an error
Loading. Please wait.

My Lovers Box Tab

1,287 views 1 this week
no commentswrite comment
1 2 3 4 5
please rate
add to favorites
launch autoscroll
font size
0
reset
how to read this tab
guitar tuner
Autoscroll
slow
fast
+/-
esc
set tempo
stop
Help us to improve Ultimate-Guitar.com Take our survey!
×
Author
Difficulty
novice
Band:Garbage
Song Title: My Lovers Box
Tuning: Normal

Chords Used For This Song

      Bb5   Csus2  C5   Eb5  Ebmaj7 F5/D   Gm
E|-----------3-----------------------------3-----------|
B|-----------3-----------------3-----6-----3-----------|
G|-----3-----5-----------4-----3-----5-----3-----------|
D|-----3-----5-----5-----3-----5-----3-----5-----5-----|
A|-----1-----3-----3-----1-----6-----------5-----5-----|
E|-----------X-----X-----------------------3-----3-----|


Intro Guitar:

Listen to song for pattern and chord changes. The intro is only two chords G5 & Csus2.
way I play
it is to only strum the first three stings on the G5 chord and then the whole chord for 
There are a couple of different ways you could play it. One is just the chords.
other is the
chords with a few fill notes. I will tab a couple of different versions.

Repeat (4 Times)
Intro Guitar I Optoin 1
E|-------------------3--3--3--3--3---|
B|-------------------3--3--3--3--3---|
G|-------------------5--5--5--5--5---|
D|---5--5--5--5--5---5--5--5--5--5---|
A|---5--5--5--5--5---3--3--3--3--3---|
E|---3--3--3--3--3---X--X--X--X--X---|


Repeat (4 Times)
Intro Guitar I Option 2
E|-------------------3--3---------------------|
B|-------------------3--3--3--------3---------|
G|-------------------5--5-----5--------5------|
D|---5--5--5--5--5---5--5--------5--------5---|
A|---5--5--5--5--5---3--3---------------------|
E|---3--3--3--3--3---X--X---------------------|

Guitar II: Intro Lead

E|---18------18--17------17--15-|-15------15--------|------------------------------|
B|------------------------------|-------------18----|-15------15-------------------|
G|------------------------------|-------------------|-------------17------17--15---|
D|------------------------------|-------------------|------------------------------|
A|-------17----------17---------|-----17------------|-----17----------17-----------|
E|------------------------------|-------------------|------------------------------|

E|----------------|
B|----------------|
G|---15------15---|
D|----------------|
A|-------17-------|
E|----------------|

Verse 1:

Listen to the song for the strumming pattern its kind of odd but sounds cool. There is a
chord in the song. I play it one way but I think the band plays it another. The
tab has it posted as the way I think the band plays it. The way I play it is listed as 
(II). There are only two chords for the verse.


   Ebmaj7   csus2    Csus2(II)
E|---------------------3---|
B|---3--------6--------3---|
G|---3--------5--------5---|
D|---5--------5--------5---|
A|---6--------3--------3---|
E|-------------------------|

My lover's charms
Are in a box
Beneath my bed
And piece by piece
I'll cherish them
Until the end

(Play the Intro Guitar Part)
Intro Guitar Optoin 1
E|-------------------3--3--3--3--3---|
B|-------------------3--3--3--3--3---|
G|-------------------5--5--5--5--5---|
D|---5--5--5--5--5---5--5--5--5--5---|
A|---5--5--5--5--5---3--3--3--3--3---|
E|---3--3--3--3--3---X--X--X--X--X---|


Repeat (4 Times)
Intro Guitar Option 2
E|-------------------3--3---------------------|
B|-------------------3--3--3--------3---------|
G|-------------------5--5-----5--------5------|
D|---5--5--5--5--5---5--5--------5--------5---|
A|---5--5--5--5--5---3--3---------------------|
E|---3--3--3--3--3---X--X---------------------|


Send me an angel to love
I need to feel a little piece of heaven
Send me an angel to love
I'm afraid I'll never get to heaven


Verse 2:

   Ebmaj7   csus2    Csus2(II)
E|---------------------3---|
B|---3--------6--------3---|
G|---3--------5--------5---|
D|---5--------5--------5---|
A|---6--------3--------3---|
E|-------------------------|

They burn my hand
Scar my face
And blind my eyes
I'll steal your breath
And throw away
What I despise

Chorus 2:
Intro Guitar Optoin 1
E|-------------------3--3--3--3--3---|
B|-------------------3--3--3--3--3---|
G|-------------------5--5--5--5--5---|
D|---5--5--5--5--5---5--5--5--5--5---|
A|---5--5--5--5--5---3--3--3--3--3---|
E|---3--3--3--3--3---X--X--X--X--X---|


Repeat (4 Times)
Intro Guitar Option 2
E|-------------------3--3---------------------|
B|-------------------3--3--3--------3---------|
G|-------------------5--5-----5--------5------|
D|---5--5--5--5--5---5--5--------5--------5---|
A|---5--5--5--5--5---3--3---------------------|
E|---3--3--3--3--3---X--X---------------------|

Send me an angel to love
I need to feel a little piece of heaven
Send me an angel to love
I'm afraid I'll never get to heaven

Bridge:
Listen To Song For Strumming Pattern

Guitar 1
E|-----------------------------------------|
B|-----------------------------------------|
G|-7--------8------------------------------|
D|-7--------8---5--------8-----------------|
A|-5--------6---5--------8-----------------|
E|--------------3--------6-----------------|

Guitar 2
E|-----------------------------------------|
B|-----------------------------------15----|
G|--------------12-14-14b15r14-12----------|
D|--------------------------------15-------|
A|-----------------------------------------|
E|-----------------------------------------|

 Guitar 1
E|-----------------------------------------|
B|-----------------------------------------|
G|-7--------8------------------------------|
D|-7--------8---5--------8-----------------|
A|-5--------6---5--------8-----------------|
E|--------------3--------6-----------------|

Guitar 2
E|-----------------------------------------|
B|-----------------------------------------|
G|--------------12-14-14b15r14-12----------|
D|--------------------------------15-12----|
A|-----------------------------------------|
E|-----------------------------------------|

 Guitar 1
E|-----------------------------------------|
B|-----------------------------------------|
G|-7--------8------------------------------|
D|-7--------8---5--------8-----------------|
A|-5--------6---5--------8-----------------|
E|--------------3--------6-----------------|

Guitar 2
E|-----------------------------------------|
B|-----------------------------------15----|
G|--------------12-14-14b15r14-12----------|
D|--------------------------------15-------|
A|-----------------------------------------|
E|-----------------------------------------|


Do, do, do, do,     do,     do._____

Do, do, do, do,     do,     do._____

(Play The Intro Part Again)

Verse 3:
Between these walls
And darkened halls
I've done my time
If I should die
Before I wake
Then you'll know why

Chorus:
Send me an angel to love
I need to feel a little piece of heaven
Send me an angel to love
I'm afraid I'll never get to heaven (Piece by piece)

Send me an angel to love (Piece by piece)
I need to feel a little piece of heaven (Piece by piece)
Send me an angel to love (Piece by piece)
I'm afraid I'll never get to heaven (Piece by piece)


Outro:

Play This Part Until The End Of The Song

E|------------------------|------------|
B|------------------------|------------|
G|------------------------|--------3---|
D|---0--0--0--1----1----5-|--3--5--3---|
A|---0--0--0--1----1----5-|--3--5--1---|
E|----------------------3-|--1--3------|

Piece by piece
Piece by piece
Piece by piece (Send me an angel)
Piece by piece (Send me an angel)
Piece by piece (Send me an angel)
Piece by piece (Send me an angel)
Suggest correction
Give kudos to tab author, rate the tab!
1 2 3 4 5
comments
print report bad tab
guest
You may want to rate the tab now too:
select rating
Wanna post a correction for this tab? Suggest correction