Oops, an error
Loading. Please wait.

Night Drive Loneliness Tab

109 views 3 this week
no commentswrite comment
1 2 3 4 5
3 more votes to show rating
add to favorites
launch autoscroll
font size
0
reset
how to read this tab
guitar tuner
Autoscroll
slow
fast
+/-
esc
set tempo
stop
Help us to improve Ultimate-Guitar.com Take our survey!
×
Difficulty
Tuning
novice
C# G# E B F# C#
About this tab version
This version is a tablature version and include all parts of the songs. Was this info helpful? Yes No
Submitted by a random Israeli Garbage fan

I know they probably play it in Drop D\1 Step down but it definitely sounds perfectly accurate in C#.
Just adjust it to your tuning.


[Intro]
Gtr 1 - Distortion
C#|-------------------------|
G#|-------------------------|
E |-------------2--------5-4|
B |--2---3---2------2-------|
F#|0---0---0------0---0-----|
C#|-------------------------|

Alternative way so you can easily adjust to different tuning
C#|-------------------------|
G#|-------------------------|
E |-------------------------|
B |-------------7-------10-9|
F#|--7---8---7------7-------|
C#|5---5---5------5---5-----|


[Verse]
Not really played with guitar but it's sounds nice
C#|--------------------------------------------------------------------|
G#|--------------------------------------------------------------------|
E |--------------------------------------------------------------------|
B |--------------------------------------------------------------------|
F#|3----5-7--1----5-7------5-7------------3----2-3-5-----3-5-6----5-6-8|
C#|--------------------4-------3---------------------------------------|

[Chorus]
Gtr 1 - Distortion
C#|----------------------------------------------------------------------------------|
G#|----------------------------------------------------------------------------------|
E |5-5-5-5-5-5-5-5-5-5--3-3-3-3-3-3-3-3-3-3------------------------------------------|
B |5-5-5-5-5-5-5-5-5-5--3-3-3-3-3-3-3-3-3-3--6-6-6-6-6-6-6-6-6-6--5-5-5-5-5-5-5-5-5-5|
F#|3-3-3-3-3-3-3-3-3-3--1-1-1-1-1-1-1-1-1-1--6-6-6-6-6-6-6-6-6-6--5-5-5-5-5-5-5-5-5-5| x2
C#|------------------------------------------4-4-4-4-4-4-4-4-4-4--3-3-3-3-3-3-3-3-3-3|

Gtr 2 - Distortion
C#|3-4-4-4-4-3-3|
G#|3-4-4-4-4-3-3|
E |-------------|
B |-------------|
F#|-------------| x8
C#|-------------|


[Verse]
Not really played with guitar but it's sounds nice
C#|--------------------------------------------------------------------|
G#|--------------------------------------------------------------------|
E |--------------------------------------------------------------------|
B |--------------------------------------------------------------------|
F#|3----5-7--1----5-7------5-7------------3----2-3-5-----3-5-6----5-6-8|
C#|--------------------4-------3---------------------------------------|

[Chorus]
Gtr 1 - Distortion
C#|----------------------------------------------------------------------------------|
G#|----------------------------------------------------------------------------------|
E |5-5-5-5-5-5-5-5-5-5--3-3-3-3-3-3-3-3-3-3------------------------------------------|
B |5-5-5-5-5-5-5-5-5-5--3-3-3-3-3-3-3-3-3-3--6-6-6-6-6-6-6-6-6-6--5-5-5-5-5-5-5-5-5-5|
F#|3-3-3-3-3-3-3-3-3-3--1-1-1-1-1-1-1-1-1-1--6-6-6-6-6-6-6-6-6-6--5-5-5-5-5-5-5-5-5-5| x2
C#|------------------------------------------4-4-4-4-4-4-4-4-4-4--3-3-3-3-3-3-3-3-3-3|

Gtr 2 - Distortion
C#|3-4-4-4-4-3-3|
G#|3-4-4-4-4-3-3|
E |-------------|
B |-------------|
F#|-------------| x8
C#|-------------|

[Bridge]
Gtr 1 - Distortion
C#|-------------------------|
G#|-------------------------|
E |-------------2--------5-4|
B |--2---3---2------2-------|
F#|0---0---0------0---0-----|
C#|-------------------------|

Alternative way so you can easily adjust to different tuning
C#|-------------------------|
G#|-------------------------|
E |-------------------------|
B |-------------7-------10-9|
F#|--7---8---7------7-------|
C#|5---5---5------5---5-----|

[Pitched up chorus]
Gtr 1 - Distortion
C#|----------------------------------------------------------------------------------------------------|
G#|9-9-9-9-9-9-9-9-9-9-9-------------------------------------------------------------------------------|
E |8-8-8-8-8-8-8-8-8-8-8--5-5-5-5-5-5-5-5-5-5-5-5------------------------------------------------------|
B |6-6-6-6-6-6-6-6-6-6-6--5-5-5-5-5-5-5-5-5-5-5-5--8-8-8-8-8-8-8-8-8-8-8-8-8--6-6-6-6-6-6-6-6-6-6-6-6-6|
F#|-----------------------3-3-3-3-3-3-3-3-3-3-3-3--8-8-8-8-8-8-8-8-8-8-8-8-8--6-6-6-6-6-6-6-6-6-6-6-6-6| x2
C#|------------------------------------------------6-6-6-6-6-6-6-6-6-6-6-6-6--4-4-4-4-4-4-4-4-4-4-4-4-4|


[Outro]
Gtr 1 - Distortion
C#|-------------------------|
G#|-------------------------|
E |-------------2--------5-4|
B |--2---3---2------2-------|
F#|0---0---0------0---0-----|
C#|-------------------------|

Alternative way so you can easily adjust to different tuning
C#|-------------------------|
G#|-------------------------|
E |-------------------------|
B |-------------7-------10-9|
F#|--7---8---7------7-------|
C#|5---5---5------5---5-----|
Suggest correction
Give kudos to tab author, rate the tab!
1 2 3 4 5
comments
print report bad tab
guest
You may want to rate the tab now too:
select rating
Wanna post a correction for this tab? Suggest correction