Oops, an error
Loading. Please wait.

Special bass

version 2
version 2

Whole song

Interactive

by Garbage
448 views 1 this week
no commentswrite comment
1 2 3 4 5
1 last vote to show rating
add to favorites
×
Save as Personal and add changes to this tab that will be seen only by you. Learn more ›
×
You can save this tab as Personal to edit and correct it or add notes. All changes will be seen only by you. Learn more »
launch autoscroll
font size
0
reset
guitar tuner
backing track
0:00
0:00
edit
Autoscroll
slow
fast
+/-
esc
set tempo
stop
Author
Difficulty
Title: Special
Artist: Garbage
Album: Version 2.0 [1998]
My e-mail: xtripmywire@gmail.com

Tab is 99% correct [not sure if riff 5 is ok but the rest seems to be fine].
Riff 1
G|----8---6-8-|    |---5---3-5-|
D|------8-----|    |-----5-----|
A|-6----------|    |-3---------|
E|------------|[x2]|-----------|[x2]

Riff 2
G|------------|    |---3---1-3-|
D|----3---1-3-|    |-----3-----|
A|------3-----|    |-1---------|
E|-1----------|[x2]|-----------|[x2]

Riff 3
G|---------------|    |--------------|
D|---------------|    |--------------|
A|---------------|    |-8~-6~-5-3-1~-|
E|-4(x16)-6(x16)-|[x2]|--------------|

Riff 4
G|----||---5---3-5-|
D|----||-----5-----|
A|-6~-||-3---------|
E|----||-----------|[x2]

G|----||---5---3-5-|
D|----||-----5-----|
A|-5~-||-3---------|
E|----||-----------|[x2]

Riff 5
G|------------------------|
D|--------10/15~--15/20--\|
A|-6~/10~-----------------|
E|------------------------|

Riff 6
G|------------|    |---5---3-5-|
D|----8---6-8-|    |-----5-----|
A|------8-----|    |-3---------|
E|-6----------|[x2]|-----------|[x2]

Order:
Riff 1 [x2] "I'm living without you..."
Riff 2 [x2] "I have run you down into the ground..."
Riff 1 [x2] "I used to adore you..."
Riff 2 [x2] "There was nothing that I wouldn't do..."
Riff 3 "Do you have an opinion?..."
Riff 4 "I..."
Riff 2 [x2] "Do you have an opinion?..."
Riff 5 "I used to amuse you..."
Riff 2 [x2] "Now you're here and begging for a chance..."
Riff 3 [first part x3 not x2] "Do you have an opinion?..."
Riff 6 "I'm looking for a new..."

            
            
Suggest correction
Creating personal tab
Creating personal tab
You can edit any tab online and save it as your Personal.

You can edit, replace or remove any tab part or add personal notes – all changes will be seen only by you.

Personal tabs can be accessed anytime from any device, even offline.
Learn more »
Give kudos to tab author, rate the tab!
1 2 3 4 5
comments
print report bad tab
guest
You may want to rate the tab now too:
select rating
Wanna post a correction for this tab? Suggest correction