Oops, an error
Loading. Please wait.

Why Do You Love Me solo tab

version 1
version 1

Solo

Whole song

  • This tab shows the correct 2nd guitar parts in the... Show more
by Garbage
74 views 3 this week
2 commentsread comments
1 2 3 4 5
2 more votes to show rating
add to favorites
×
Save as Personal and add changes to this tab that will be seen only by you. Learn more ›
×
You can save this tab as Personal to edit and correct it or add notes. All changes will be seen only by you. Learn more »
launch autoscroll
font size
0
reset
how to read this tab
guitar tuner
backing track
0:00
0:00
edit
Autoscroll
slow
fast
+/-
esc
set tempo
stop
Author
Difficulty
[Break]

I think you're sleeping with a friend of mine
e|---------------------------------------------------------------------------|
B|---------------------------------------------------------------------------|
G|---------------------------------------------------------------------------|
D|11----------------11--------------11-------------11------------------------|
A|12----------------11--------------10-------------9-------------------------|
E|---------------------------------------------------------------------------|

  I have no proof but I think that I'm right

e|---------------------------------------------------------------------------|
B|---------------------------------------------------------------------------|
G|---------------------------------------------------------------------------|
D|9---------7------------9---------------------------------------------------|
A|8---------7------------5--------------------5---7--------------------------|
E|------------------------------------------0-3-0-5-0------------------------|

     And you've still got the most beautiful face
e|---------------------------------------------------------------------------|
B|---------------------------------------------------------------------------|
G|---------------------------------------------------------------------------|
D|11------------------11-----------11-------------11-------------------------|
A|12------------------11-----------10-------------9--------------------------|
E|---------------------------------------------------------------------------|

  It just makes me sad .........most of the time

e|---------------------------------------------------------------------------|
B|---------------------------------------------------------------------------|
G|---------------------------------------------------------------------------|
D|---9-------------7------------9--------------------------------------------|
A|---8-------------7------------5--------------------5---7-------------------|
E|-------------------------------------------------0-3-0-5-0-----------------| 

            
            
Suggest correction
Creating personal tab
Creating personal tab
You can edit any tab online and save it as your Personal.

You can edit, replace or remove any tab part or add personal notes – all changes will be seen only by you.

Personal tabs can be accessed anytime from any device, even offline.
Learn more »
Give kudos to tab author, rate the tab!
1 2 3 4 5
comments
print report bad tab
2 comments total.
0 reply
billdavid1234 10 Jul 07, 2016 08:50 AM, edited at 06:08 pm

Looks good!

0 reply
billdavid1234 10 Jul 07, 2016 02:07 PM

Looks good!

guest
You may want to rate the tab now too:
select rating
Wanna post a correction for this tab? Suggest correction