Oops, an error
Loading. Please wait.

Why Do You Love Me Bass Tab

version 2
version 2

Whole song

2,768 views 9 this week
no commentswrite comment
1 2 3 4 5
excellent!
x 2
add to favorites
launch autoscroll
font size
0
reset
guitar tuner
Tab Pro tools
  • play this tab
  • loop segment
  • change instrument
  • show fretboard
  • metronome
Autoscroll
slow
fast
+/-
esc
set tempo
stop
Contributor
Tabbed By : MorganBAss

This is my first tab ever!!!! Please if you have any comments or suggestions 
please send me a message!!! 


Tuning:EADG

Intro
G|------------------------------------------------------------------|
D|------------------------------------------------------------------|
A|------------------------------------------------------------------|
E|--0h3-0h5-0h3-0h5-0-0h3-0h5-0h3-0h5-0-----------------------------|

Verse
G|------------------------------------------------------------------|
D|------------------------------------------------------------------| X2
A|---------33333333--------55555555--------33333333--------22222222-|
E|-00000000--------33333333--------00000000--------33333333---------|

Pre-chorus
G|------------------------------------------------------------------|
D|------------------------------------------------------4-----------|
A|-33333333333333-------------33333333333333-----------5-5----------|
E|---------------5555555555555--------------5555555555--------------|

Chorus
G|------------------------------------------------------------------|
D|------------------------------------------------------------------|
A|---------33333333--------55555555--------33333333--------22-22-22-|
E|-00000000--------33333333--------00000000--------33333333---------|

G|------------------------------------------------------------------|
D|------------------------------------------------------------------|
A|---------33333333--------55555555-------33-3-3--------22-2-2------|
E|-00000000--------33333333--------00-0-0--------33-3-3-------------|

Intro
G|------------------------------------------------------------------|
D|------------------------------------------------------------------|
A|------------------------------------------------------------------|
E|--0h3-0h5-0h3-0h5-0-0h3-0h5-0h3-0h5-0-----------------------------|

Verse
G|------------------------------------------------------------------|
D|------------------------------------------------------------------| X2
A|---------33333333--------55555555--------33333333--------22222222-|
E|-00000000--------33333333--------00000000--------33333333---------|

Pre-chorus
G|------------------------------------------------------------------|
D|------------------------------------------------------4-----------|
A|-33333333333333-------------33333333333333-----------5-5----------|
E|---------------5555555555555--------------5555555555--------------|

Chorus
G|------------------------------------------------------------------|
D|------------------------------------------------------------------|
A|---------33333333--------55555555--------33333333--------22-22-22-|
E|-00000000--------33333333--------00000000--------33333333---------|

G|------------------------------------------------------------------|
D|------------------------------------------------------------------|
A|---------33333333--------55555555-------33-3-3--------22-2-2------|
E|-00000000--------33333333--------00-0-0--------33-3-3-------------|

Bridge
G|------------------------------------------------------------------|
D|-----------------------------------------------------------4------|
A|-33333333333333-55555555555555-33333333333333-5555555555--5-5-----|
E|------------------------------------------------------------------|

Intro
G|------------------------------------------------------------------|
D|------------------------------------------------------------------| x2
A|------------------------------------------------------------------|
E|--0h3-0h5-0h3-0h5-0-0h3-0h5-0h3-0h5-0-----------------------------|

G|------------------------------------------------------------------|
D|-7--6--5--4--3--2--4----------------------------------------------|
A|------------------------------------------------------------------|
E|------------------------------------------------------------------|

G|------------------------------------------------------------------|
D|------------------------------------------------------------------|
A|------------------------------------------------------------------|
E|-0h3-0h5-0--------------------------------------------------------|

G|------------------------------------------------------------------|
D|-7--6--5--4--3--2--4----------------------------------------------|
A|------------------------------------------------------------------|
E|------------------------------------------------------------------|

G|------------------------------------------------------------------|
D|------------------------------------------------------------------|
A|------------------------------------------------------------------|
E|-0h3-0h5-0--------------------------------------------------------|

Bridge
G|------------------------------------------------------------------|
D|-----------------------------------------------------------4------|
A|-33333333333333-55555555555555-33333333333333-5555555555--5-5-----|
E|------------------------------------------------------------------|

Verse
G|------------------------------------------------------------------|
D|------------------------------------------------------------------| 
A|---------33333333--------55555555--------33333333--------22222222-|
E|-00000000--------33333333--------00000000--------33333333---------|

Chorus
G|------------------------------------------------------------------|
D|------------------------------------------------------------------|
A|---------33333333--------55555555--------33333333--------22-22-22-|
E|-00000000--------33333333--------00000000--------33333333---------|

Outro
G|------------------------------------------------------------------|
D|------------------------------------------------------------------|
A|-33-3-3-33-3-3-55-5-5-55-5-5-33-3-3-33-3-3-55-5-5-55-5-5----------|
E|------------------------------------------------------------------|

Intro
G|------------------------------------------------------------------|
D|------------------------------------------------------------------|
A|------------------------------------------------------------------|
E|--0h3-0h5-0h3-0h5-0-----------------------------------------------|


| /  slide up
| \  slide down
| h  hammer-on
| p  pull-off
| ~  vibrato
| +  harmonic
| x  Mute note
===============================================================================
comments
We did not receive enough feedback on this tab! Please rate:
print report bad tab
1 2 3 4 5
I want to post or [tab]
guest
You may want to rate the tab now too:
select rating
Please do not post tabs as comments. Select "correction" instead!