Oops, an error
Loading. Please wait.

Why Do You Love Me Tab

version 3
version 3

Whole song

  • This tab shows the correct 2nd guitar parts in the... Show more
82 views 9 this week
no commentswrite comment
1 2 3 4 5
2 more votes to show rating
add to favorites
launch autoscroll
font size
0
reset
how to read this tab
guitar tuner
Autoscroll
slow
fast
+/-
esc
set tempo
stop
Help us to improve Ultimate-Guitar.com Take our survey!
×
Author
About this tab version
This tab shows the correct 2nd guitar parts in the pre chorus and chorus ,nas well as the tab for the keyboard bridge part. This tab also shows a proper representation of the rhythm. Was this info helpful? Yes No
Garbage - Why Do You Love Me

This tab contains ALL parts to this song, including the second guitar in the pre chorus and chorus,
and the bridge keyboard part.

I've also included the lyrics at the bottom.  In the lyrics I show where to play which parts of the song.


[Intro]

e|---------------------------------------------------------------------------|
B|---------------------------------------------------------------------------|
G|---------------------------------------------------------------------------|
D|---------------------------------------------------------------------------|
A|--5----7----5----7------------5----7----5----7-----------------------------|
E|0-3--0-5--0-3--0-5--0-------0-3--0-5--0-3--0-5--0--------------------------|


[Verse 1]

(Be sure to change chords at the proper off beats)

  1 + 2 + 3 + 4 + 1 + 2 + 3 + 4 + 1 + 2 + 3 + 4 + 1 + 2 + 3 + 4 +
e|---------------------------------------------------------------------------|
B|---------------------------------------------------------------------------|
G|---------------------------------------------------------------------------|
D|9-9-9-9-9-9-9-5-5-5-5-5-5-5-5-5---------------7-7-7-7-7-7-7-7-7------------|
A|7-7-7-7-7-7-7-3-3-3-3-3-3-3-3-3-5-5-5-5-5-5-5-5-5-5-5-5-5-5-5-5------------|
E|--------------------------------3-3-3-3-3-3-3------------------------------|

  1 + 2 + 3 + 4 + 1 + 2 + 3 + 4 + 1 + 2 + 3 + 4 + 1 + 2 + 3 + 4 + 
e|---------------------------------------------------------------------------|
B|---------------------------------------------------------------------------|
G|---------------------------------------------------------------------------|
D|9-9-9-9-9-9-9-5-5-5-5-5-5-5-5-5---------------4-4-4-4-4-4-4-4-4------------|
A|7-7-7-7-7-7-7-3-3-3-3-3-3-3-3-3-5-5-5-5-5-5-5-2-2-2-2-2-2-2-2-2------------|
E|--------------------------------3-3-3-3-3-3-3------------------------------|


[Pre-Chorus]

(Guitar #1)

  1 + 2 + 3 + 4 + 1 + 2 + 3 + 4 + 1 + 2 + 3 + 4 + 1 + 2 + 3 + 4 +
e|---------------------------------------------------------------------------|
B|---------------------------------------------------------------------------|
G|---------------------------------------------------------------------------|
D|5-5-5-5-5-5-5-5-5-5-5-5-5-5-5-5-7-7-7-7-7-7-7-7-7-7-7-7-7-7-7-7------------| 2x
A|3-3-3-3-3-3-3-3-3-3-3-3-3-3-3-3-5-5-5-5-5-5-5-5-5-5-5-5-5-5-5-5------------|
E|---------------------------------------------------------------------------|

(Guitar #2)

  1 + 2 + 3 + 4 + 1 + 2 + 3 + 4 + 1 + 2 + 3 + 4 + 1 + 2 + 3 + 4 +
e|---------------------------------------------------------------------------|
B|--------8---------8---------8-----------10--------10--------10-------------|
G|----9---------9---------9-----------11--------11--------11-----------------|
D|10----------10--------10--------12----------12--------12-------------------| 2x
A|---------------------------------------------------------------------------|
E|---------------------------------------------------------------------------|


[Chorus]

(Guitar 1)
  1 + 2 + 3 + 4 + 1 + 2 + 3 + 4 + 1 + 2 + 3 + 4 + 1 + 2 + 3 + 4 + 
e|---------------------------------------------------------------------------|
B|---------------------------------------------------------------------------|
G|---------------------------------------------------------------------------|
D|9-9-9-9-9-9-9-5-5-5-5-5-5-5-5-----------------7-7-7-7-7-7-7-7-7------------|
A|7-7-7-7-7-7-7-3-3-3-3-3-3-3-3-5-5-5-5-5-5-5-5-5-5-5-5-5-5-5-5-5------------|
E|------------------------------3-3-3-3-3-3-3-3------------------------------|

  1 + 2 + 3 + 4 + 1 + 2 + 3 + 4 + 1 + 2 + 3 + 4 + 1 + 2 + 3 + 4 + 
e|---------------------------------------------------------------------------|
B|---------------------------------------------------------------------------|
G|---------------------------------------------------------------------------|
D|9-9-9-9-9-9-9-5-5-5-5-5-5-5-5-----------------4-4-4-4-4-4-4-4-4------------|
A|7-7-7-7-7-7-7-3-3-3-3-3-3-3-3-5-5-5-5-5-5-5-5-2-2-2-2-2-2-2-2-2------------|
E|------------------------------3-3-3-3-3-3-3-3------------------------------|

  1 + 2 + 3 + 4 + 1 + 2 + 3 + 4 + 1 + 2 + 3 + 4 + 1 + 2 + 3 + 4 + 
e|---------------------------------------------------------------------------|
B|---------------------------------------------------------------------------|
G|---------------------------------------------------------------------------|
D|9-9-9-9-9-9-9-5-5-5-5-5-5-5-5-----------------7-7-7-7-7-7-7-7-7------------|
A|7-7-7-7-7-7-7-3-3-3-3-3-3-3-3-5-5-5-5-5-5-5-5-5-5-5-5-5-5-5-5-5------------|
E|------------------------------3-3-3-3-3-3-3-3------------------------------|

  1 + 2 + 3 + 4 + 1 + 2 + 3 + 4 + 1 + 2 + 3 + 4 + 1 + 2 + 3 + 4 +
e|---------------------------------------------------------------------------|
B|---------------------------------------------------------------------------|
G|---------------------------------------------------------------------------|
D|x-9-9-x-9-x-9-x-x-5-5-x-5-x-5-x-----------------x-4-4-x-4-x-4-x------------|
A|x-7-7-x-7-x-7-x-x-3-3-x-3-x-3-x-x-5-5-x-5-x-5-x-x-2-2-x-2-x-2-x------------|
E|--------------------------------x-3-3-x-3-x-3-x----------------------------|

(Guitar 2)
e|---------------------------------------------------------------------------------------------------|
B|/12-8---/12-8---/12-8---/12-10---/12-8---/12-8---/12-8---/12-10---/12-8---/12-8---/12-8---/12-10---|
G|/12-9---/12-9---/12-9---/12-11---/12-9---/12-9---/12-9---/12-11---/12-9---/12-9---/12-9---/12-11---|
D|---------------------------------------------------------------------------------------------------|
A|---------------------------------------------------------------------------------------------------|
E|---------------------------------------------------------------------------------------------------|

(Repeat Intro)

(Verse #2 - same as verse #1 except no guitar in the first measure)

(Repeat Pre-Chorus)

(Repeat Chorus)


[Bridge]

(Guitar #1)

 "I get back up and I do it again..."
e|---------------------------------------------------------------------------|
B|---------------------------------------------------------------------------|
G|---------------------------------------------------------------------------|
D|5-5-5-5-5-5-5-5-5-5-5-5-5-5-5-5-7-7-7-7-7-7-7-7-7-7-7-7-7-7-7-7------------|  2x
A|3-3-3-3-3-3-3-3-3-3-3-3-3-3-3-3-5-5-5-5-5-5-5-5-5-5-5-5-5-5-5-5------------|
E|---------------------------------------------------------------------------|

(Guitar #2 - Second Time Through Chord Progression)

e|---------------------------------------------------------------------------------|
B|---------------------------------------------------------------------------------|
G|9-9-9-9-9-9-9-9-9-9-9-9-9-9-9-9-11-11-11-11-11-11-11-11-11-11-11-11-11-11-11-11--|
D|---------------------------------------------------------------------------------|
A|7-7-7-7-7-7-7-7-7-7-7-7-7-7-7-7-9--9--9--9--9--9--9--9--9--9--9--9--9--9--9--9---|
E|---------------------------------------------------------------------------------|


[Intro - Modified]

e|--------------------------------------------------------------------------------------------------|
B|--------------------------------------------------------------------------------------------------|
G|--------------------------------------------------------------------------------------------------|
D|--------------------------------------------------------------------------------------------------|
A|--5----7----5----7---------5----7----5----7---------5----7----5----7---------5----7----5----7-----|
E|0-3--0-5--0-3--0-5--0----0-3--0-5--0-3--0-5--0-x--0-3--0-5--0-3--0-5--0----0-3--0-5--0-3--0-5--0--|


[Break - Keyboard Part]

I think you're sleeping with a friend of mine
e|---------------------------------------------------------------------------|
B|---------------------------------------------------------------------------|
G|---------------------------------------------------------------------------|
D|11----------------11--------------11-------------11------------------------|
A|12----------------11--------------10-------------9-------------------------|
E|---------------------------------------------------------------------------|

  I have no proof but I think that I'm right
e|---------------------------------------------------------------------------|
B|---------------------------------------------------------------------------|
G|---------------------------------------------------------------------------|
D|9---------7------------9---------------------------------------------------|
A|8---------7------------5--------------------5----7-------------------------|
E|------------------------------------------0-3--0-5--0----------------------|

     And you've still got the most beautiful face
e|---------------------------------------------------------------------------|
B|---------------------------------------------------------------------------|
G|---------------------------------------------------------------------------|
D|11------------------11-----------11-------------11-------------------------|
A|12------------------11-----------10-------------9--------------------------|
E|---------------------------------------------------------------------------|

  It just makes me sad .........most of the time
e|---------------------------------------------------------------------------|
B|---------------------------------------------------------------------------|
G|---------------------------------------------------------------------------|
D|---9-------------7------------9--------------------------------------------|
A|---8-------------7------------5--------------------5----7------------------|
E|-------------------------------------------------0-3--0-5--0---------------| 

(Repeat Bridge)

("Do it again" 4x Part - Same Guitar Parts As Chorus)

(Repeat Chorus)


[Outro Chorus]

(Guitar #1)

 1 + 2 + 3 + 4 + 1 + 2 + 3 + 4 + 1 + 2 + 3 + 4 + 1 + 2 + 3 + 4 + 
e|----------------------------------------------------------------|
B|----------------------------------------------------------------|
G|----------------------------------------------------------------|
D|x-5-5-x-5-x-5-x-x-5-5-x-5-x-5-x-x-7-7-x-7-x-7-x-x-7-7-x-7-x-7-x-|
A|x-3-3-x-3-x-3-x-x-3-3-x-3-x-3-x-x-5-5-x-5-x-5-x-x-5-5-x-5-x-5-x-|
E|----------------------------------------------------------------|

 1 + 2 + 3 + 4 + 1 + 2 + 3 + 4 + 1 + 2 + 3 + 4 + 1 + 2 + 3 + 4 +
e|----------------------------------------------------------------|
B|----------------------------------------------------------------|
G|----------------------------------------------------------------|
D|x-5-5-x-5-x-5-x-x-5-5-x-5-x-5-x-x-7-7-x-7-x-7-x-x-7-7-x-7-x-7-x-|
A|x-3-3-x-3-x-3-x-x-3-3-x-3-x-3-x-x-5-5-x-5-x-5-x-x-5-5-x-5-x-5-x-|
E|----------------------------------------------------------------|

(Guitar #2)

  1 + 2 + 3 + 4 + 1 + 2 + 3 + 4 + 1 + 2 + 3 + 4 + 1 + 2 + 3 + 4 + 
e|----------------------------------------------------------------|
B|----------------------------------------------------------------|
G|----------------------------------------------------------------|
D|x-5-5-x-5-x-5-x-x-5-5-x-5-x-5-x-x-7-7-x-7-x-7-x-x-7-7-x-7-x-7-x-|
A|x-3-3-x-3-x-3-x-x-3-3-x-3-x-3-x-x-5-5-x-5-x-5-x-x-5-5-x-5-x-5-x-|
E|----------------------------------------------------------------|

  1 + 2 + 3 + 4 + 1 + 2 + 3 + 4 + 1 +  2  + 3  + 4  + 1  +  2 +  3 +  4 + 
e|---------------------------------------------------------------------------|
B|---------------------------------------------------------------------------|
G|x-9-9-x-9-x-9-x-x-9-9-x-9-x-9-x-x-11-11-x-11-x-11-x-11-11-x-11-x-11-x------|
D|---------------------------------------------------------------------------|
A|x-7-7-x-7-x-7-x-x-7-7-x-7-x-7-x-x-9--9--x-9--x-9--x-9--9--x-9--x-9--x------|
E|---------------------------------------------------------------------------|


e|----------------------------|
B|----------------------------|
G|----------------------------|
D|----------------------------|
A|--5----7----5----7----------|
E|0-3--0-5--0-3--0-5--0-------|

Lyrics with guitar parts labeled...


[Intro]


[Verse 1]

I'm no barbie doll - I'm not your baby girl
I've done ugly things and I have made mistakes
And I am not as pretty as those girls in magazines
I am rotten to my core if they're to be believed


[Pre-Chorus]

So what if I'm no baby bird hanging upon your every word?
Nothing ever smells of roses that rises out of mud


[Chorus]

Why do you love me
Why do you love me
Why do you love me, it's driving me crazy
Why do you love me
Why do you love me
Why do you love me, it's driving me crazy
Why do you love me
Why do you love me
Why do you love me, it's driving me crazy
Why do you love me
Why do you love me


[Intro]


[Verse 2] (no guitar in this part)

You're not some baby boy
Why you acting so surprised
You're sick of all the rules
Well I'm sick of all your lies

(guitar comes in here)
Now I've held back a wealth of shit, I think I'm gonna choke
I'm standing in the shadows with the words stuck in my throat


[Pre-Chorus]

Does it really come as a surprise when I tell you I don't feel good?
Nothing ever came from nothing man - Oh man, ain't that the truth


[Chorus]

Why do you love me
Why do you love me
Why do you love me, it's driving me crazy
Why do you love me
Why do you love me
Why do you love me, it's driving me crazy
Why do you love me
Why do you love me
Why do you love me, it's driving me crazy
Why do you love me
Why do you love me


[Bridge]

I get back up and I do it again
I get back up and I do it again
I get back up and I do it again
I get back up and I do it, I do it again


[Intro - Modified]


[Break - Keyboard Part]

I think you're sleeping with a friend of mine
I have no proof but I think that I'm right
And you've still got the most beautiful face
It just makes me sad most of the time


[Bridge]

I get back up and I do it again
I get back up and I do it again
I get back up and I do it again
I get back up and I do it, I do it again

("Do it again" 4x Part - Same Guitar Parts As Chorus)
Do it again
Do it again
Do it again


[Outro Chorus]

Why do you love me
Why do you love me
Why do you love me, it's driving me crazy
Why do you love me
Why do you love me
Why do you love me, it's driving me crazy
Why do you love me
Why do you love me
Why do you love me
Why do you love me


************************************

| x   Dead note
| g   Grace note
| (n) Ghost note
| h   Hammer-on
| p   Pull-off
| r   Release
| >   Accented note
| t   Tapping
| b   Bend
| br  Bend release
| pb  Pre-bend
| pbr Pre-bend release
| /   Slide up
| \   Slide down
| ~   Vibrato
| s   Slap
| P   Pop
| PM  Palm mute
| TR  Trill
| N   Tremolo

************************************
Suggest correction
Give kudos to tab author, rate the tab!
1 2 3 4 5
comments
print report bad tab
guest
You may want to rate the tab now too:
select rating
Wanna post a correction for this tab? Suggest correction