Oops, an error
Loading. Please wait.

Truth Or Dare Tab

40 views 1 this week
no commentswrite comment
1 2 3 4 5
3 more votes to show rating
add to favorites
launch autoscroll
font size
0
reset
how to read this tab
guitar tuner
Autoscroll
slow
fast
+/-
esc
set tempo
stop
Help us to improve Ultimate-Guitar.com Take our survey!
×
Author
Difficulty
intermediate
About this tab version
Adds the leads and gives both rhythm and leads for the intro. Also gives the amount of beats to play each chord in the intro. Was this info helpful? Yes No
[Intro]
e|---------------------------------------------------------------------------|
B|---------------------------------------------------------------------------|
G|------8---------------------8----------------------------------------------|
D|----9----9------6-----7---9----9--6-6-6-7--7-------------------------------|
A|--7-----------7-----7---7---------7-7-7-7--7-------------------------------|
E|------------4-----5---------------4-4-4-5--5-------------------------------|

     (Lead)
e|---------------------------------|
B|-9-0-7-0-5-7-5-0-4-5-4-0-2-4-2-0-|
G|---------------------------------|
D|---------------------------------|
A|---------------------------------|
E|---------------------------------|

e|-----------------7-5-4-5-7-5-4---|
B|-9-0-7-0-5-7-5-7---------------7-|
G|---------------------------------|
D|---------------------------------|
A|---------------------------------|
E|---------------------------------|

e|---------------------------------|
B|-9-0-7-0-5-7-5-0-4-5-4-0-2-4-2-0-|
G|---------------------------------|
D|---------------------------------|
A|---------------------------------|
E|---------------------------------|

e|-----------------7-5-4-5-7-5-4----|
B|-9-0-7-0-5-7-5-7---------------7-5|
G|----------------------------------|
D|----------------------------------|
A|----------------------------------|
E|----------------------------------|

     (rhythm)
E G#m A
2  1  1 (beats)

[Verse] TAKEN FROM TIMBO63'S TAB-CHORDS AT BOTTOM
E                       A                          C#m               B
 I should have let the bullet shed, I should have left off where it all began
       E                          A                C#m                B
 It's been so long I don't know where it ends, and nothing seems the same
     E                    A                  C#m              B
 My eyes stay closed, without the sleep, my broken heart is yours to keep
      E                       A                C#m              B
 So, pull out the puzzle and every piece, while I take off again
    C#m                    B/D#           E
 I dare you to take me for what I was, a loving contradiction (I dare you)
   C#m               B/D#               E
 A perfect life done, oh so perfectly, wrong (tell me the truth)
     C#m                       B/D#             E     B/D#  C#m  A               B
 I'm excited, sometimes you're over eager, but girl I am no fool, I see through you

          E C#m         A
 May I begin,  without living with all this pain?
     E                       C#m                     A
 My roof is collapsing, I'm standing in the pouring rain
             E C#m          A
 How do I begin,   without living with this distrain?
      E                     C#m                  A E/A A  A E/A A
 I'm losing my drugs, and I want them all back again
   A   E/A          A                ( EM7  G#m A )x2   ( E  G#m A )x4
 Feels like we're breaking our backs

      E                A                  C#m                   B
 The memory, it's apathetic, and all the times here've been pathetic
            E                  A                   C#m                  B
 Remind me, so I could now regret it, and make sure we won't reach the same
     E                   A                  C#m             B
 My eyes, they close without the sleep, my broken heart is yours to keep
      E                      A                 C#m                B
 So, pull out the puzzle and every piece, while I bring home the pain, oh ohh
   C#m                     B/D#           E
 I dare you to take me for what I was, a loving contradiction (I dare you)
   C#m               B/D#               E
 A perfect life done, oh so perfectly wrong (tell me the truth)
     C#m                B/D#             E     B/D#  C#m  A               B
 I'm excited, sometimes over eager, but girl I am no fool, I see through you

          E C#m         A
 May I begin,  without living with all this pain?
     E                       C#m                     A
 My roof is collapsing, I'm standing in the pouring rain
             E C#m          A
 How do I begin,   without living with this distrain?
      E                     C#m                  A E/A A  ( A E/A A ) x3
 I'm losing my drugs, and I want them all back again
   A   E/A          A                ( EM9  G#m A )x12
 Feels like we're breaking our backs

CHORD DIAGRAMS

    E    G#m     A    C#m
e|--0--|---4---|---0--|---4-----|
B|--0--|---4---|---2--|---5-----|
G|--1--|---5---|---2--|---6-----|
D|--2--|---6---|---2--|---6-----|
A|--2--|---6---|---0--|---4-----|
E|--0--|---4---|---x--|---x-----|


Suggest correction
Give kudos to tab author, rate the tab!
1 2 3 4 5
comments
print report bad tab
guest
You may want to rate the tab now too:
select rating
Wanna post a correction for this tab? Suggest correction