Oops, an error
Loading. Please wait.

Immune He Knows My Strength tab

version 1
version 1

Whole song

  • Guitar Tab for "Immune" by Garden Wall. Tabs for b... Show more

Interactive

16 views 1 this week
no commentswrite comment
1 2 3 4 5
3 more votes to show rating
add to favorites
×
Save as Personal and add changes to this tab that will be seen only by you. Learn more ›
×
You can save this tab as Personal to edit and correct it or add notes. All changes will be seen only by you. Learn more »
launch autoscroll
font size
0
reset
how to read this tab
guitar tuner
edit
Autoscroll
slow
fast
+/-
esc
set tempo
stop
Author
Difficulty
intermediate
About this tab version
Guitar Tab for "Immune" by Garden Wall. Tabs for both clean guitar and distorted solo guitar. Was this info helpful? Yes No
Band: Garden Wall
Album: Chimica
Song: Immune (He Knows my Strength)
Tab: Clean Guitar and Solo Guitar
Tabbed by: muberal

[Clean Guitar]
Tempo: 144bpm
7/4
[Intro]
e|--------8-----8-----------8-----8-----8-------|
B|-----6-----6-----6-----6-----6-----6-----6----|
G|----------------------------------------------|
D|----------------------------------------------|
A|----------------------------------------------|
E|----------------------------------------------| x8

e|--------5-----5-----------5-----5-----5-------|
B|-----3-----3-----3-----3-----3-----3-----3----|
G|----------------------------------------------|
D|----------------------------------------------|
A|----------------------------------------------|
E|----------------------------------------------| x8

e|--------3--------3--------3--------3-----3----|
B|-----1--------1--------1--------1-----1-------|
G|----------------------------------------------|
D|----------------------------------------------|
A|----------------------------------------------|
E|----------------------------------------------| x4

4/4
[Main Part]
e|-----------------------8----|
B|-----------------8--6-------|
G|-----------7--5-------------|
D|--------5-------------------|
A|----------------------------|
E|----------------------------| x4

e|-----8-----8-----8-----8----|-----8-----8-----8-----8----|
B|--6-----6-----6-----6-------|--6-----6-----x-----6-------|
G|----------------------------|----------------------------|
D|----------------------------|----------------------------|
A|----------------------------|----------------------------|
E|----------------------------|----------------------------|

e|-----------3-----3-----3----|
B|--------1-----1-----1-------|
G|----------------------------|
D|----------------------------|
A|----------------------------|
E|----------------------------| x24

e|-----------------------8----|-----------------------8b---|  //very slight bend
B|-----------------8--6-------|-----------------8--6-------|
G|-----------7--5-------------|-----------7--5-------------|
D|--------5-------------------|--------5-------------------|
A|----------------------------|----------------------------|
E|----------------------------|----------------------------|

e|-----------------------8----|
B|-----------------8--6-------|
G|-----------7--5-------------|
D|--------5-------------------|
A|----------------------------|
E|----------------------------| x2

e|-----8-----8-----8-----8----|-----8-----8-----8-----8----|-----8-----8-----8-----8----|
B|--6-----------6-----6-------|--6-----6-----6-----6-------|--6-----6-----6-----6-------|
G|----------------------------|----------------------------|----------------------------|
D|----------------------------|----------------------------|----------------------------|
A|----------------------------|----------------------------|----------------------------|
E|----------------------------|----------------------------|----------------------------|

e|-----------8----------------|----------------------------|
B|--------6-----------6/------|--8-------------------------|
G|--------------------5/------|--7-------------------------|
D|----------------------------|----------------------------|
A|----------------------------|----------------------------|
E|----------------------------|----------------------------|

e|-----------8----------------|-------------5--------------|
B|--------6-----------6/------|--8-------------------------|
G|--------------------5/------|--7-------------------------|
D|----------------------------|----------------------------|
A|----------------------------|----------------------------|
E|----------------------------|----------------------------|

e|-----------8----------------|----------------------------|
B|--------6-----------6/------|--8-------------------------|
G|--------------------5/------|--7-------------------------|
D|----------------------------|----------------------------|
A|----------------------------|----------------------------|
E|----------------------------|----------------------------|

e|-----------8----------------|-------------5------6-------|
B|--------6-----------6/------|--8-------------------------|
G|--------------------5/------|--7-------------------------|
D|----------------------------|----------------------------|
A|----------------------------|----------------------------|
E|----------------------------|----------------------------|

e|-----------x----------------|----------------------------|
B|--------6-----------6/------|--8-------------------------|
G|--------------------5/------|--7-------------------------|
D|----------------------------|----------------------------|
A|----------------------------|----------------------------|
E|----------------------------|----------------------------|

e|-----------8----------------|-------------5--------------|
B|--------6-----------6/------|--8-------------------------|
G|--------------------5/------|--7-------------------------|
D|----------------------------|----------------------------|
A|----------------------------|----------------------------|
E|----------------------------|----------------------------|

e|-----------8----------------|----------------------------|
B|--------6-----------6/------|--8-------------------------|
G|--------------------5/------|--7-------------------------|
D|----------------------------|----------------------------|
A|----------------------------|----------------------------|
E|----------------------------|----------------------------|

e|-----------8----------------|-------------6--------------|
B|--------6-----------6/------|--8-------------4--6--------|
G|--------------------5/------|--7-------------------------|
D|----------------------------|----------------------------|
A|----------------------------|----------------------------|
E|----------------------------|----------------------------|

e|-----------8----------------|----------------------------|
B|--------6-----------6/------|--8-------------------------|
G|--------------------5/------|--7-------------------------|
D|----------------------------|----------------------------|
A|----------------------------|----------------------------|
E|----------------------------|----------------------------|

e|-----------8----------------|-------------5--------------|
B|--------6-----------6/------|--8-------------------------|
G|--------------------5/------|--7-------------------------|
D|----------------------------|----------------------------|
A|----------------------------|----------------------------|
E|----------------------------|----------------------------|

e|-----------8----------------|----------------------------|
B|--------6-----------6/------|--8-------------------------|
G|--------------------5/------|--7-------------------------|
D|----------------------------|----------------------------|
A|----------------------------|----------------------------|
E|----------------------------|----------------------------|

e|-----------8----------------|-------------6--------------|----------------6-----(8)---|
B|--------6-----------6/------|--8-----------------4-------|--6-----(8)-----------------|
G|--------------------5/------|--7-------------------------|----------------------------|
D|----------------------------|----------------------------|----------------------------|
A|----------------------------|----------------------------|----------------------------|
E|----------------------------|----------------------------|----------------------------|

[Outro]
7/4
e|--------------8-----------8-----8-----8-------|
B|--------8--6-----6-----6-----6-----6-----6----|
G|-----5----------------------------------------|
D|----------------------------------------------|
A|----------------------------------------------|
E|----------------------------------------------|

e|--------8-----8-----------8-----8-----8-------|
B|-----6-----6-----6-----6-----6-----6-----6----|
G|----------------------------------------------|
D|----------------------------------------------|
A|----------------------------------------------|
E|----------------------------------------------| x13

4/4
e|-----------------8-----8----|-----------8-----8-----8----|
B|--------6--8--6-----6-------|--------6-----6-----6-------|
G|----------------------------|----------------------------|
D|----------------------------|----------------------------|
A|----------------------------|----------------------------|
E|----------------------------|----------------------------| x2

7/4
e|----------------------------------------------|
B|----------------------------------------------|
G|--------7--------7--------7--------7-----7----|
D|-----5--------5--------5--------5-----5-------|
A|----------------------------------------------|
E|----------------------------------------------| x4


4/4             slow down/rit. 2/4     4/4
e|-----------------------8----|--7----|--13-----------|
B|-----------------8--6-------|-------|---------------|
G|-----------7--5-------------|-------|---------------|
D|--------5-------------------|-------|---------------|
A|----------------------------|-------|---------------|
E|----------------------------|-------|---------------|

Fin.
[Solo Guitar]
Solo starts midway through the song and lasts almost till the end.
Listen to the original for timing, it's rather complicated sometimes.
Tempo: 144bpm
4/4
e|-------|----------------|----------------------------------------|
B|--5----|-------/6/-8\---|--6--------------------------------1/---|
G|-------|----------------|----------------------------------------|
D|-------|----------------|----------------------------------------|
A|-------|----------------|----------------------------------------|
E|-------|----------------|----------------------------------------|

e|----------------------------------------------------|----------------------------|----------------|
B|--3-----------------------------------1h-3p-1-------|--------------1/-3----------|-/5/-6/-8\-6----|
G|----------------------------------------------------|----------------------------|----------------|
D|----------------------------------------------------|----------------------------|----------------|
A|----------------------------------------------------|----------------------------|----------------|
E|----------------------------------------------------|----------------------------|----------------|

e|----------------------------------------------------------------------------|----------------|----------|
B|-----------------------------------------------6----------------------------|--------8\-5/---|--6/-10---|
G|--------------------------------------------------------7h----5p----7-------|----------------|----------|
D|----------------------------------------------------------------------------|----------------|----------|
A|----------------------------------------------------------------------------|----------------|----------|
E|----------------------------------------------------------------------------|----------------|----------|

e|----------------------------------------------------------------------------|
B|--------------------------------------8h-10p8-----------------------10p8----|
G|----------------------------------------------------------------------------|
D|----------------------------------------------------------------------------|
A|----------------------------------------------------------------------------|
E|----------------------------------------------------------------------------|

Here the guitar splits in two for a short time, one in the center channel and one in the center-to-right
channel.
[CENTER CHANNEL]
e|----------|----------|--------------------|----------|----------------------------|-------|
B|--8\-6\---|--4/-6\---|--5\-----3\---------|--1/-5\---|--3\----------------1/-3----|-------|
G|----------|----------|--------------------|----------|----------------------------|-------|
D|----------|----------|--------------------|----------|----------------------------|-------|
A|----------|----------|--------------------|----------|----------------------------|-------|
E|----------|----------|--------------------|----------|----------------------------|-------|

[CENTER-TO-RIGHT CHANNEL]
e|----------|----------|----------3----3----|----------|----------------------------|-------|
B|-----6\---|--4\-3\---|--1\-----3----3-----|--1/-5\---|--3\----------------1/-3----|-------|
G|----------|----------|--------------------|----------|----------------------------|-------|
D|----------|----------|--------------------|----------|----------------------------|-------|
A|----------|----------|--------------------|----------|----------------------------|-------|
E|----------|----------|--------------------|----------|----------------------------|-------|

Back to one guitar.
e|----------|----------------------------------------------------------------------------|
B|--12/13---|-----------------------------------------------10h15-----------p10/---------|
G|----------|----------------------------------------------------------------------------|
D|----------|----------------------------------------------------------------------------|
A|----------|----------------------------------------------------------------------------|
E|----------|----------------------------------------------------------------------------|

e|----------|----------------|-----------------------15---|--------------13-12---------|
B|--12/13---|--13----13/15---|--12----------13------------|----------------------------|
G|----------|----------------|----------------------------|----------------------------|
D|----------|----------------|----------------------------|----------------------------|
A|----------|----------------|----------------------------|----------------------------|
E|----------|----------------|----------------------------|----------------------------|

e|----------------------------|----------------------------|
B|----------------------------|--8--------10----11----10---|
G|----------------------------|----------------------------|
D|--12-10-8--10---------------|----------------------------|
A|----------------------------|----------------------------|
E|----------------------------|----------------------------|

e|--13----------------------------------------13-10---|--12----------------------13------------------------|
B|----------------------------------------------------|-----------------------------------------------13---|
G|----------------------------------------------------|----------------------------------------------------|
D|----------------------------------------------------|----------------------------------------------------|
A|----------------------------------------------------|----------------------------------------------------|
E|----------------------------------------------------|----------------------------------------------------|

e|--15~--|--20-------15---|--15-------------------17-------------------18p17---|
B|-------|----------------|----------------------------------------------------|
G|-------|----------------|----------------------------------------------------|
D|-------|----------------|----------------------------------------------------|
A|-------|----------------|----------------------------------------------------|
E|-------|----------------|----------------------------------------------------|

e|-----------------------------------------15h17p15---|-----------------------------------13h15p13---------|
B|----------------------------------------------------|----------------------------------------------------|
G|----------------------------------------------------|----------------------------------------------------|
D|----------------------------------------------------|----------------------------------------------------|
A|----------------------------------------------------|----------------------------------------------------|
E|----------------------------------------------------|----------------------------------------------------|

                  fade-in            hold                fade out
e|-------|-------|--12---|-------|-------|-------|-------|-------|
B|-------|-------|-------|-------|-------|-------|-------|-------|
G|-------|-------|-------|-------|-------|-------|-------|-------|
D|-------|-------|-------|-------|-------|-------|-------|-------|
A|-------|-------|-------|-------|-------|-------|-------|-------|
E|-------|-------|-------|-------|-------|-------|-------|-------|

e|-------|----------------------------------------------------|
B|--13---|--------------10h13p10-------------------------10---|
G|-------|--------------------------------------12------------|
D|-------|----------------------------------------------------|
A|-------|----------------------------------------------------|
E|-------|----------------------------------------------------|

e|-------|----------------------------------------------------|
B|-------|----------------------------------------------------|
G|-------|--------------10h12p10----------------9/-------10---|
D|-------|----------------------------------------------------|
A|-------|----------------------------------------------------|
E|-------|----------------------------------------------------|

e|-------|----------------------------------------------------|
B|-------|----------------------------------------------------|
G|-------|--------------9h-10p9-------------------------------|
D|-------|--------------------------------------12\------10---|
A|-------|----------------------------------------------------|
E|-------|----------------------------------------------------|

e|-------|--------------13------------|
B|-------|-----------------11-13------|
G|-------|----------------------------|
D|-------|----------------------------|
A|-------|----------------------------|
E|-------|----------------------------|

e|-------|----------------------------------------------------|
B|--13---|--------------10h11p10-------------------------10---|
G|-------|--------------------------------------12------------|
D|-------|----------------------------------------------------|
A|-------|----------------------------------------------------|
E|-------|----------------------------------------------------|

e|-------|----------------------------------------------------|
B|-------|----------------------------------------------------|
G|-------|--------------9/----------10------------------------|
D|-------|-----------------------------------------------12---|
A|-------|----------------------------------------------------|
E|-------|----------------------------------------------------|

e|-------|----------------------------------------------------|
B|-------|----------------------------------------------------|
G|-------|----------------------------------------------------|
D|-------|--------------10h12p10----------------------12-10---|
A|-------|----------------------------------------------------|
E|-------|----------------------------------------------------|

e|-------|----------------|----------------|
B|-------|--------11------|----------------|
G|-------|-----------8/---|--10/12/15/17---|
D|-------|----------------|----------------|
A|-------|----------------|----------------|
E|-------|----------------|----------------|

7/4
e|-------|-------------------------|-------------------------|
B|-------|-------------------------|-------------------------|
G|-------|----------\13------------|--13-10------------------|
D|-------|-------------------------|-------------------------|
A|-------|-------------------------|-------------------------|
E|-------|-------------------------|-------------------------|

e|--11-------9--8-----9-----------------------------------------------11------------------|
B|----------------------------------------------------------------------------------------|
G|----------------------------------------------------------------------------------------|
D|----------------------------------------------------------------------------------------|
A|----------------------------------------------------------------------------------------|
E|----------------------------------------------------------------------------------------|

e|----------\8----------------------------------|-------|
B|----------------------------------------------|--9\---|
G|----------------------------------------------|-------|
D|----------------------------------------------|-------|
A|----------------------------------------------|-------|
E|----------------------------------------------|-------|

e|-------|--11-------9--8/----------13----------13------------------------------------------------|
B|--6----|----------------------------------------------------------------------------------------|
G|-------|----------------------------------------------------------------------------------------|
D|-------|----------------------------------------------------------------------------------------|
A|-------|----------------------------------------------------------------------------------------|
E|-------|----------------------------------------------------------------------------------------|

e|--12------------------------------------------|----------------------------------------------|
B|--------------------10----------13h15p13------|--------------------------------8/----10------|
G|----------------------------------------------|-----------------10---------------------------|
D|----------------------------------------------|----------------------------------------------|
A|----------------------------------------------|----------------------------------------------|
E|----------------------------------------------|----------------------------------------------|

e|----------------------------------------------|------------------------------------------------------------|
B|--------------------------11\------10\8-------|--------------6-----------6---------------------------------|
G|----------------------------------------------|------------------------------------------------------------|
D|----------------------------------------------|------------------------------------------------------------|
A|----------------------------------------------|------------------------------------------------------------|
E|----------------------------------------------|------------------------------------------------------------|

e|--12------------------------------------------|----------------------------------------------|
B|--------------------10----------13h15p13------|--------------------------------8/----10\-----|
G|----------------------------------------------|-----------------10---------------------------|
D|----------------------------------------------|----------------------------------------------|
A|----------------------------------------------|----------------------------------------------|
E|----------------------------------------------|----------------------------------------------|

4/4
e|----------------|----------------------------|----------/10~--------------|-------|
B|--9--------8----|-----------6-----------6----|----------------------------|-------|
G|----------------|----------------------------|----------------------------|-------|
D|----------------|----------------------------|----------------------------|-------|
A|----------------|----------------------------|----------------------------|-------|
E|----------------|----------------------------|----------------------------|-------|

************************************
 
| /   slide up
| \   slide down
| (n) ghost note
| ~   vibrato
| h   hammer on
| p   pull off

************************************

            
            
Suggest correction
Creating personal tab
Creating personal tab
You can edit any tab online and save it as your Personal.

You can edit, replace or remove any tab part or add personal notes – all changes will be seen only by you.

Personal tabs can be accessed anytime from any device, even offline.
Learn more »
Give kudos to tab author, rate the tab!
1 2 3 4 5
comments
print report bad tab
guest
You may want to rate the tab now too:
select rating
Wanna post a correction for this tab? Suggest correction