Oops, an error
Loading. Please wait.

Cucustlan Mexicano Tab

38 views 1 this week
no commentswrite comment
1 2 3 4 5
3 more votes to show rating
add to favorites
launch autoscroll
font size
0
reset
how to read this tab
guitar tuner
Autoscroll
slow
fast
+/-
esc
set tempo
stop
Help us to improve Ultimate-Guitar.com Take our survey!
×
  
  primero empieza la bateria y luego entra la guitarra así:

  ----------------------------------
  ----------------------------------
  ----------------------------------       A5
  --------7777777777----------------
  --------7777777777----------------
  --------5555555555---------------- 
  
  LLEGAN AL PAIS Y LOS TRATAN COMO REYES 
  PERO LLEGAS TU Y NOMAS SE HACEN LOS GUEYES
  CUCUSTLAN MEXICANO ACABA CON EL MARRANO

  LUEGO,EL VERSO EMPIEZA ASI
  -----------------------------------------------
  -----------------------------------------------
  -----------------------------------------------
  ----7-10-7-10-7-10-7-10-7-10-7-10-7-10-7-10----  A5
  ----7-10-7-10-7-10-7-10-7-10-7-10-7-10-7-10----  C5
  ----5-8--5-8--5-8--5-8--5--8-5--8-5--8-5--8----

  Y LUEGO BAJA DE TONO
  -----------------------------------------------
  -----------------------------------------------
  ----7-10-7-10-7-10-7-10-7-10-7-10-7-10-7-10----
  ----7-10-7-10-7-10-7-10-7-10-7-10-7-10-7-10----  D5
  ----5-8--5-8--5-8--5-8--5--8-5--8-5--8-5--8----  F5(8)
  -----------------------------------------------
  NOTA:EL VERSO VA AL RITMO DE LA LETRA

  el pre-chorus es asi, masomenos rapido
  --------------------------
  --------------------------    
  --------------------------    
  --7--10--12--13-----------       X4 
  --7--10--12--13-----------
  --5--8---10--11-----------

  y vuelve a bajar 
  --------------------------
  --------------------------
  --7--10--12--13-----------       X4 
  --7--10--12--13-----------
  --5--8---10--11-----------
  --------------------------

  y los coros 
  ------------------------------
  ------------------------------
  --------9999------------------
  ---2222-9999-7777-9999--------
  ---2222-7777-7777-9999--------
  ---0000------5555-7777--------
  agamos un trato hermano
  perseguir al extrangero
  amarrarlo por las nalgas 
  se le quite lo culero
Suggest correction
Give kudos to tab author, rate the tab!
1 2 3 4 5
comments
print report bad tab
guest
You may want to rate the tab now too:
select rating
Wanna post a correction for this tab? Suggest correction