Oops, an error
Loading. Please wait.

Desnudense (Las Nalgas) Tab

78 views 1 this week
no commentswrite comment
1 2 3 4 5
3 more votes to show rating
add to favorites
launch autoscroll
font size
0
reset
how to read this tab
guitar tuner
×
Best way to learn
"Desnudense (las Nalgas)"
Autoscroll
slow
fast
+/-
esc
set tempo
stop
 INTRO
  
  ----------------4h5-5-5-5-5-----------------------------
  ----------------4h5-5-5-5-5-----------------------------
  ----------7-----4h5-5-5-5-5-----------7-----------------
  ---4-4-4--7---7----------------4-4-4--7---7-7-7-7-7-7---    X 2
  ---4-4-4--5---7----------------4-4-4--5---7-7-7-7-7-7---
  ---2-2-2----0-5----------------2-2-2----0-5-5-5-5-5-5---

  
  VERSO 1           PM
                   
        A5      D5     Fm5(9)     E5(7)
  -----------------------------------------
  -----------------------------------------
  -----------7-7-7-7-11-11-11-11-9-9-9-9---
  ---7-7-7-7-7-7-7-7-11-11-11-11-9-9-9-9---
  ---7-7-7-7-5-5-5-5-9--9--9--9--7-7-7-7---
  ---5-5-5-5-------------------------------

  A5            D5
  ver como te moviste
       Fm5(9)      E5(7) 
  crei solo era el chiste 
  A5               D5
  vez lo que provoco
  Fm5(9)           E5(7)
  es que mi sexo bibro
  A5            D5  
  algo se me ocurrio
     Fm5(9)          E5(7) 
  al ver mover tus petacas
   A5             D5
  agamos un nuevo baile 
  Fm5(9)            E5(7)
  vamos a mover las nalgas

  INTRO  X 2
  
  VERSO 2
  si hay algo que yo admiro
  es ver una chica bella
  y cada vez que las miro
  se me olvida hasta la botella
  vamonos rebentando
  no te sientas culpable
  vamos moviendo las nalgas 
  se siente a toda madre  

  INTRO  X 2
  
  PRE-CHORUS
          
  ---------------------------------------------------
  ---------------------------------------------------
  ---11-11-11-11-9-9-9-9---14-14-14-14-14-14-14-14---
  ---11-11-11-11-9-9-9-9---14-14-14-14-14-14-14-14---
  ---9--9--9--9--7-7-7-7---12-12-12-12-12-12-12-12---
  ---------------------------------------------------
     quita las   nalgas de ahí
     quita las   nalgas de ahí

  CORO  
       A5     D5     E5(7)
  --------------------------------
  --------------------------------
  ----------7-7-7--9-9-9-9-9-9----
  ---7-7-7--7-7-7--9-9-9-9-9-9----
  ---7-7-7--5-5-5--7-7-7-7-7-7----
  -- 5-5-5------------------------
     
      A5 D5 E5(7)
  las nalgas 
                    A5 D5 E5(7)
  vamos a mover las nalgas 
                    A5 D5 E5(7)
  vamos a ver como bailan
                    A5 D5 E5(7)
  vamos a moverlas ya

  VERSO 3
  algo se me ocurrio 
  al ver mover tus petacas
  agamos un nuevo baile
  bamos a mover la nalgas
  al ver como bailabas 
  vaya como me exitabas
  tu si eres de buen ver
  que sea lo que debe ser

  INTRO   X 2

  PRE-CHORUS
 
  LO SIENTO EL REQUINTO NO LO PUDE SACAR
Suggest correction
Give kudos to tab author, rate the tab!
1 2 3 4 5
comments
print report bad tab
guest
You may want to rate the tab now too:
select rating
Wanna post a correction for this tab? Suggest correction