Oops, an error
Loading. Please wait.

Juan Pirulero Tab

11 views 1 this week
no commentswrite comment
1 2 3 4 5
3 more votes to show rating
add to favorites
launch autoscroll
font size
0
reset
how to read this tab
guitar tuner
Autoscroll
slow
fast
+/-
esc
set tempo
stop
Help us to improve Ultimate-Guitar.com Take our survey!
×
  Intro:
   D   G A  X4

   D            G    A
  Juan pirulero lero lero
  Juan pirulero lero lero
  Juan pirulero lero lero
  Juan pirulero lero lero

  despues queda el verso sin guitarra, solo el bajo:
  -----------------------------
  -----------------------------
  ---5-5-5-5-------------------
  -----------3-3-5-3-5-3-------
  yo ya no se conquien se fue 
  si con un negro o con el mesie
  sin mis calzones ya me dejo
  y como un lacra se me alejo
  
    pre-chorus   distorcion/on  
  A5                C#5      D5 
  fue con un rocker o con un foder
  A5            C#5     D5
  o con su tia de algarabia
  A5                C#5      D5 
  fue con un rocker o con un foder
  A5            C#5     D5
  o con su tia de algarabia

  Coro    
   D            G    A
  Juan pirulero lero lero
  Juan pirulero lero lero
  Juan pirulero lero lero
  Juan pirulero lero lero
 
  despues se queda en D haciendo unos arpegeos 
  -2-----2---------2------2-----2---------2----
  -3-------3----3---------3-------3----3-------
  -2---------2------------2---------2----------
  -0----------------------0--------------------
  ---------------------------------------------
  ---------------------------------------------
  esta parte es cuando dice
  si te duele, si te duele, site duele la cabeza
  Chupa limon, chupa limon                             X2

  por ultimo, entra a los Coros pero cambia de tono
   E            A    B
  Juan pirulero lero lero
  se lo cortaron por culero
  Juan pirulero lero lero
  se lo cortaron por culero

  Y luego se repiten otra vez los coros pero en su tono normal
  (aunque la voz se hace mas grave)
   D            G    A
  Juan pirulero lero lero
  se lo cortaron por culero
  Juan pirulero lero lero
  se lo cortaron por culero

  Notas
     D  G  A   A5  C#5   D5  E  B 
  ---5--3--5-----------------7--7-------
  ---7--3--5-----------------9--7-------
  ---7--4--6--------6----7---9--8---------
  ---7--5--7---7----6----7---9--9----------
  ---5--5--7---7----4----5---7--9----------
  ---5--3--5---5-------------7--7--------
Suggest correction
Give kudos to tab author, rate the tab!
1 2 3 4 5
comments
print report bad tab
guest
You may want to rate the tab now too:
select rating
Wanna post a correction for this tab? Suggest correction