Oops, an error
Loading. Please wait.

Mujer Tab

21 views 1 this week
no commentswrite comment
1 2 3 4 5
3 more votes to show rating
add to favorites
×
Save as Personal and add changes to this tab that will be seen only by you. Learn more ›
×
You can save this tab as Personal to edit and correct it or add notes. All changes will be seen only by you. Learn more »
save as personal
new!
launch autoscroll
font size
0
reset
how to read this tab
guitar tuner
Autoscroll
slow
fast
+/-
esc
set tempo
stop
  INTRO
  -----------------------------------------
  -----------------------------------------
  ------0------------------0---------------
  ----4---------4--------4---4------4------
  --5---------5---5----5----------5---5----
  -----------------------------------------

  -----------------------------------------
  -----------------------------------------
  ------0------------------0---------------
  ----4---4-----4--------4---4------4------
  --5---------5---5----5----------5---5----
  -----------------------------------------

  -----------------------------------------
  -----------------------------------------
  ------0------------------0---------------
  ----4---4-----4--------4---4------4------
  --5---------5---5----5----------5---5----
  -----------------------------------------

  ------
  ------
  --0---
  --4---
  --5---
  ------

  verso 1
  -------------------------------
  -------------------------------
  -------------------------------
  ------0-----0---4-------0------
  ----5-----5-----------2---2----
  --3-----5-----------5----------
  me han pedido que escriba algo
  para decifrar lo que ella es
  hielo muerte ese olor a clavo
  amalgama todo ella es mi
  G      Bm           G
  mujer  es MI mujer  mujer
  Bm     G    Bm    G   Bm
  
  Nota: en el acorde de Bm, lleba arpegeos 

  despues sigue el verso 2 
  -------------------------------
  -------------------------------
  -------------------------------
  ------0-----0---4-------0------
  ----5-----5-----------2---2----
  --3-----5-----------5----------
  en el cristal de su pequeña mano
  amor bebi como dulce veneno
  nido ardiente que me abraza el seno
  tratar de olvidarla habra sido en bano
  todo ha sido en bano 

  luego entra a los acordes G A D  x 2 
  G          A          D 
  como describir lo que ella me inspira
  G                 A           D
  no encontrarias palabras para una diva
  G            A         D 
  ella me eclipso con su cuerpo me arrullo
  G                 A           D
  que siga asi permanesca en mi mujer

  luego se queda la bateria, el bajo muy queditos
  entonces la guitarra hace algo como el intro, pero no igual
  ------------------------------------
  ------------------------------------
  -------0-----------------0----------
  -----4---4-------------4---4--------
  ---5---------5-------5----------5---
  ------------------------------------
                                     X 2
  ------------------------------------
  ------------------------------------
  -------0-----------------0----------
  -----4---4-------------4---4--------
  ---5---------5-------5----------5---
  ------------------------------------

  entra al verso 1
  -------------------------------
  -------------------------------
  -------------------------------
  ------0-----0---4-4-----0------
  ----5-----5-----------2---2----
  --3-----5-----------5----------
  me han pedido que escriba algo
  para decifrar lo que ella es
  hielo muerte ese olor a clavo
  amalgama todo ella es mi
  G      Bm           G
  mujer  es MI mujer  mujer
  Bm     G    Bm    G   Bm
  
  luego entra a los acordes G A D  x 2 
  G          A          D 
  como describir lo que ella me inspira
  G                 A           D
  no encontrarias palabras para una diva
  G            A         D 
  ella me eclipso con su cuerpo me arrullo
  G                 A           D
  que siga asi permanesca en mi mujer
  
  y otra vez esto 
  ------------------------------------
  ------------------------------------
  -------0-----------------0----------
  -----4---4-------------4---4--------
  ---5---------5-------5----------5---
  ------------------------------------
                                     X 2
  ------------------------------------
  ------------------------------------
  -------0-----------------0----------
  -----4---4-------------4---4--------
  ---5---------5-------5----------5---
  ------------------------------------
  
  y por ultimo
  G                A          D
  que siga asi con penas y alegrias

  aunque ella hande en sus dias
  G         A            D
      yo le he de comprender
  G                A          D
  que siga asi con penas y alegrias

  aunque ella hande en sus dias
  G         A            D
      yo le he de comprender

  nota: esto ultimo se toca con dos guitarras, una haciendo acordes y 
  otra haciendo el intro solo un poco mas rapido
Suggest correction
Give kudos to tab author, rate the tab!
1 2 3 4 5
comments
print report bad tab
guest
Wanna post a correction for this tab? Suggest correction