Oops, an error
Loading. Please wait.

Problemas Bass

20 views 1 this week
no commentswrite comment
1 2 3 4 5
3 more votes to show rating
add to favorites
launch autoscroll
font size
0
reset
guitar tuner
×
Best way to learn
"Problemas"
Autoscroll
slow
fast
+/-
esc
set tempo
stop
ES MUY FACIL Y EL BAJO SOLO SIGUE A LA GUITARRA

riff 1 ... 
cundo llegas...
G|---------------------------------------------|
D|---------------------------------------------|
A|------------4-4-4-4-4-5-5-5-5-5-7-7-7-7-7----|
E|--5-5-5-5-5----------------------------------|

fiff 2 ...
en tu casa decian...
G|---------------------------------------------|
D|---------------------------------------------|
A|--5-5-5-5-5-7-7-7-7-7-9-9-9-9-9-9-9-9-9-9----|
E|---------------------------------------------|

coro...
no quiero escuchar...
G|---------------------------------------------|
D|---------------------------------------------|
A|--7-5----------------------------------------|
E|------5-5------------------------------------|


riff 1 ... 
y si hablas al trabajo...
G|---------------------------------------------|
D|---------------------------------------------|
A|------------4-4-4-4-4-5-5-5-5-5-7-7-7-7-7----|
E|--5-5-5-5-5----------------------------------|

fiff 2 ...
que tu abuela queria...
G|---------------------------------------------|
D|---------------------------------------------|
A|--5-5-5-5-5-7-7-7-7-7-9-9-9-9-9-9-9-9-9-9----|
E|---------------------------------------------|

coro...
no quiero escuchar...
G|---------------------------------------------|
D|---------------------------------------------|
A|--7-5----------------------------------------|
E|------5-5------------------------------------|

riff 1 ... 
que me corte el pelo...
G|---------------------------------------------|
D|---------------------------------------------|
A|------------4-4-4-4-4-5-5-5-5-5-7-7-7-7-7----|
E|--5-5-5-5-5----------------------------------|
Suggest correction
Give kudos to tab author, rate the tab!
1 2 3 4 5
comments
print report bad tab
guest
You may want to rate the tab now too:
select rating
Wanna post a correction for this tab? Suggest correction