Oops, an error
Loading. Please wait.

Problemas Tab

11 views 1 this week
no commentswrite comment
1 2 3 4 5
3 more votes to show rating
add to favorites
launch autoscroll
font size
0
reset
how to read this tab
guitar tuner
×
Best way to learn
"Problemas"
Autoscroll
slow
fast
+/-
esc
set tempo
stop
 

  intro
  -----------------------------------------
  -------------------------------------5---
  ------4-6-7-6------------------4-6-7-----
  ---7----------7-7-7-7-------7------------          X2
  -----------------------------------------
  -----------------------------------------
  cuando se esta tocando el intro, se acompaña con otra guitarra
  con las notas del verso
    
  verso 1
  A5                  C#5     D5                    E5(7)
  cuando llegas de la escuela siempre con esa misma cara
  A5                  C#5   D5                E5(7)
  y si dices ya estoy arta no dormi en la madrugada
  
  Vuelve al intro    X2
  
  coro
  D5     E5(7)              Fm5(9)
  en tu casa decian que con otra yo te engañaba 
  D5           E5(7) Fm5(9)                                X2
  y que tu padrastro te castigaba

  
  bridge
  ---------------------
  ---------------------
  -------9--7--2-------
  ----7--9--7--2-------
  ----7--7--5--0-------
  ----5----------------
  
  No quiero escuchar (no quiero escuchar) - bridge
  Mira nada mas (mira nada mas) - Bridge
  bienes a contar (bienes a contar) - bridge
  Solo problemas tu me das - bridge
  Solo problemas tu me das - bridge

  
  Vuelva al intro      X2
 
  verso 2
  y si hablas al trabajo y me quieres platicar
  tus problemas al carajo Yo no te voy a aguantar
   
  Vuelve al intro      X2
   
  coro
  Que tu abuela queria que le comprara una boha            X2
  y que a tu hermanito se le hace agua la canoa
  
  Vuelve al bridge
  
  Luego sigue una parte que es mas rapida que el verso 
  pero con un estilo ska    A C# D E(7)
         A
  que me corte el pelo 
         C#
  que me ajuste el pantalon 
      D 
  que tengo que ir 
    E(7) 
  a esa reunion
      A
  que no te agarre ahi
      C#
  que no te agarre aya
         D
  porque tengo que pedir
         E(7)
  lo que me dejen de dar
      A
  que tengo un sigapronto
  C#
  una gran pistola
        D 
  si te quieres suicidar
       E(7)
  pues vaya pues tu sola
         A
  que te acompañe a misa
  C#
  todos los domingos
        D
  y que no hablen de risa
      E(7) 
  que siempre sea lo mismo

 
  Notas
   A5  C#5  D5   E5(7)  Fm5(9)  A   C#  D   E(7)
  ------------------------------5---4---5----7----
  ------------------------------5---5---7----9----
  ------6---7-----9------11-----6---6---7----9---- 
  -7----6---7-----9------11-----7---6---7----9----
  -7----4---5-----7------9------7---4---5----7----
  -5----------------------------5---4---5----7----
Suggest correction
Give kudos to tab author, rate the tab!
1 2 3 4 5
comments
print report bad tab
guest
You may want to rate the tab now too:
select rating
Wanna post a correction for this tab? Suggest correction