Oops, an error
Loading. Please wait.

Dancing Tank Tab

207 views 3 this week
no commentswrite comment
1 2 3 4 5
please rate
add to favorites
launch autoscroll
font size
0
reset
how to read this tab
guitar tuner
Autoscroll
slow
fast
+/-
esc
set tempo
stop
Help us to improve Ultimate-Guitar.com Take our survey!
×
Difficulty
novice
Song: Dancing Tank
Artist: Garlic Boys

http://www.garlicboys.net
Sony/Epic Japan


This is a song by the greatest underground hardcore punk legends to come out of Japan.


[INTRO]

E  :----------------|----------------|----------------|----------------|
B  :----------------|----------------|----------------|----------------|
G  :----------------|----------------|----------------|----------------|
D  :----------------|----------------|----------------|----------------|
A  :4---4---4-4-4-4-|4---4---4-4-4-4-|4---4---4-4-4-4-|4---4-4-5-4-2-0-|
E  :2---2---2-0-0-2-|2---2---2-0-0-2-|2---2---2-0-0-2-|2---2-----------|

This is the intro part. Heavy distortion... repeat 8 times.


[MAIN RIFF]
E  :----------------|----------------|----------------|----------------|
B  :----------------|----------------|----------------|----------------|
G  :----------------|----------------|----------------|----------------|
D  :--------6-6---6-|7-7---7-4-4---4-|--------6-6---6-|7-7---7-9-9---9-|
A  :4-4---4-4-4---4-|5-5---5-2-2---2-|4-4---4-4-4---4-|5-5---5-7-7---7-|
E  :2-2---2---------|----------------|2-2---2---------|----------------|
This is the MAIN riff in the whole song. Play strumming with high distortion and palm
after 8 repetitions.


[BRIDGE BACK TO VERSE]

E  :|----------------|----------------|
B  :|----------------|----------------|
G  :|----------------|----------------|
D  :|6---6-6-6---6-6-|6---4---2-------|
A  :|4---4-4-4---4-4-|4---2---0---6---|
E  :|----------------|------------4---|

This is the quick bridge back to the verse. Listen to the song for it.

[BRIDGE TO GUITAR SOLO AND GUITAR SOLO]

E  :----------------|----------------|----------------|----------------|----------------|
B  :----------------|----------------|----------------|----------------|----------------|
G  :----------------|----------------|----------------|----------------|----------------|
D  :7-7-7-7-7-7-7-7-|7-7-7-7-7-7-7-7-|9-9-9-9-9-9-9-9-|----------------|6---------------|
A  :5-5-5-5-5-5-5-5-|5-5-5-5-5-5-5-5-|7-7-7-7-7-7-7-7-|4---------------|4---------------|
E  :----------------|----------------|----------------|2---------------|4---------------|

(this is where he is yelling in the background)
E  :----------------|----------------|----------------|----------------|
B  :----------------|----------------|----------------|----------------|
G  :----------------|----------------|----------------|----------------|
D  :7---------------|4---------------|----------------|6---------------|
A  :5---------------|2---------------|4---------------|4---------------|
E  :5---------------|2---------------|2---------------|4---------------|

E  :----------------|----------------|----------------|----------------|
B  :----------------|----------------|----------------|----------------|
G  :----------------|----------------|----------------|----------------|
D  :7---------------|4---------------|6---6-6-6---6-6-|6---4---2-------|
A  :5---------------|2---------------|4---4-4-4---4-4-|4---2---0---6---|
E  :5---------------|2---------------|----------------|------------4---|
                                        (GUITAR SOLO HERE)
E  :----------------|----------------|----------------|
B  :----------------|----------------|----------------|
G  :6-6-6-6-8-9-----|----------------|----------------|
D  :4-4-4-4-6-7-----|7---7-7-7---9-7-|6---------6-6-6-|
A  :----------------|5---5-5-5---7-5-|4---------4-4-4-|
E  :----------------|----------------|----------------|

tabbed by jetpackjotto
Suggest correction new What's this?
You can suggest a correction to this tab. Community and Mods will review your correction and vote to approve or reject it.
comments
We did not receive enough feedback on this tab! Please rate:
print report bad tab
1 2 3 4 5
guest
You may want to rate the tab now too:
select rating
Please do not post tabs as comments. Select "correction" instead!