Oops, an error
Loading. Please wait.

Amor Prohibido Tab

54 views 1 this week
no commentswrite comment
1 2 3 4 5
3 more votes to show rating
add to favorites
launch autoscroll
font size
0
reset
how to read this tab
guitar tuner
Autoscroll
slow
fast
+/-
esc
set tempo
stop
Help us to improve Ultimate-Guitar.com Take our survey!
×
 _________________________________________________________________
|                                                                 |
|                          L E E  E S T O                         |
|_________________________________________________________________|
|                                                                 |
| Antes de copiar esta transcripción a un archivo de texto, debes |
| seleccionar la fuente tipográfica COURIER NEW o LUCIDA CONSOLE, |
| así, no se te moverán los acordes ni los punteos de su posición |
| original y podrás tocar la canción correctamente.               |
|_________________________________________________________________|

        **************************************************
        ** ·············``AMOR PROHIBIDO´´············· **
        ** ··············(GARRAS DE AMOR)·············· **
        ** ············································ **
        ** ············································ **
        ** ···············(Tono Original)·············· **
        ** ···· (Transcrita por: Rodrigo González) ···· **
        **************************************************


=INTRO=
   SOL                          MIm
E--------------------------5-- ----------------------------
G---6--6-5-6--6-5-6--6-5-6---- --6--6-5-6--6-5-6--6-5-6----
B----------------------------- -------------------------7--
D----------------------------- ----------------------------
A----------------------------- ----------------------------
E----------------------------- ----------------------------


   LAm                   DO                  RE
E---12--10-12-10------10----------------------------------
G------------------13----13---12-13-12-10----10-----------
B-----------------------------------------12-------12-11--
D---------------------------------------------------------
A---------------------------------------------------------
E---------------------------------------------------------


   SOL                          MIm
E--------------------------5-- ------------------------6--
G---6--6-5-6--6-5-6--6-5-6---- --6--6-5-6--6-5-6--6-5-6---
B----------------------------- ---------------------------
D----------------------------- ---------------------------
A----------------------------- ---------------------------
E----------------------------- ---------------------------


   LAm
E---------------------------15-14-12--
G---13--12-13-12--10-12-10------------
B-------------------------12----------
D-------------------------------------
A-------------------------------------
E-------------------------------------


    DO                      RE            SOLm
E---------------------------17-15-14-- ------6--
G---13--12-13-12--10-12-10------------ -----8---
B-------------------------12---------- ----7----
D------------------------------------- ---------
A------------------------------------- ---------
E------------------------------------- ---------

=Estrofa=
 SOLm      SOL        DOm
  CÓMO HE PODIDO ENAMORARME DE TI
                  FA       LA#           RE    RE7
  Y AHORA ESTOY SUFRIENDO...  ESTA SITUACIÓN...
 SOLm       SOL                DOm       SOL
  ERES LA MUJER QUE YO HABÍA SOÑADO EN MI VIDA
              DOm              SOLm
  Y YA TIENES DUEÑO, NO ME PERTENECES,
LA#          RE     RE7
  QUE DESILUCIÓN...

=CORO=
          SOL                   SI7
  AMOR PROHIBIDO, AMOR, ENTRE TU VIDA Y YO,
           DO                RE    RE7
  NUNCA PODRÁS HALLAR CARIÑO DE VERDAD...
          SOL                        SI7
  AMOR PROHIBIDO, AMOR, QUE TRISTE ES PARA MÍ,
            DO                RE      RE7
  TÚ ERES CASADA Y YO NO TE PODRÉ OLVIDAR...

(se repite la Intro)

=Estrofa=
SOLm           SOL             DOm
  ME HICISTE CREER QUE ERA VERDADERO NUESTRO AMOR,
              FA     LA#          RE    RE7
  TAN SÓLO FINGÍAS...   CON MI CORAZÓN...
SOLm           SOL              DOm         SOL            DOm
  DIBUJASTE UN MUNDO QUE ERA PERFECTO Y EN SILENCIO SÓLO JUGABAS,
                SOLm    LA#            RE      RE7
  YO ERA UNA AVENTURA...   DE MÍ TE BURLABAS...

=CORO=
          SOL                   SI7
  AMOR PROHIBIDO, AMOR, ENTRE TU VIDA Y YO,
           DO                RE    RE7
  NUNCA PODRÁS HALLAR CARIÑO DE VERDAD...
          SOL                        SI7
  AMOR PROHIBIDO, AMOR, QUE TRISTE ES PARA MÍ,
            DO                RE      RE7
  TÚ ERES CASADA Y YO NO TE PODRÉ OLVIDAR...

(se repite Intro)

=CORO=
          SOL                   SI7
  AMOR PROHIBIDO, AMOR, ENTRE TU VIDA Y YO,
           DO                RE    RE7
  NUNCA PODRÁS HALLAR CARIÑO DE VERDAD...
          SOL                        SI7
  AMOR PROHIBIDO, AMOR, QUE TRISTE ES PARA MÍ,
            DO                RE      RE7
  TÚ ERES CASADA Y YO NO TE PODRÉ OLVIDAR...

(se repite Intro)

=Final=
    DO    RE     SOL
E-----------------------
B------10-12-10---------
G---12-----------12-12--
D-----------------------
A-----------------------
E-----------------------

[-][-][-][-][-][-][-][-][-][-][-]FIN[-][-][-][-][-][-][-][-][-][-]

 _____________________________________________________________________
|                                                                     |
|   Aquí te van algunas indicaciones básicas para tocar la canción:   |
|_____________________________________________________________________|
|                                                                     |
|Para que el tema suene bien, te recomiendo ejecutar los acordes y los|
|cambios de acorde  en el mismo momento en que aparecen, por eso logré|
|que las ubicaciones de cada acorde  sean precisas,  tal como puse los|
|acordes sobre cada sílaba tonal de cada verso. Así te será más fácil |
|ubicar el acento musical y además obtendrás melodía y armonía similar|
|a la versión original de este grandioso grupo.                       |
|_____________________________________________________________________|
 |                       |                              |
 |       C L A V E       |   CUERDAS de la GUITARRA:    |
 | Universal - Americana |                              |
 |                       | E---> es Mi AGUDO (1 cuerda) |
 | DO  =============== C | B---> es Si       (2 cuerda) |
 | RE  =============== D | G---> es Sol      (3 cuerda) |
 | MI  =============== E | D---> es Re       (4 cuerda) |
 | FA  =============== F | A---> es La       (5 cuerda) |
 | Sol =============== G | E---> es Mi GRAVE (6 cuerda) |
 | LA  =============== A |______________________________|
 | SI  =============== B |
 |_______________________|


ACORDES USADOS EN ESTA CANCIÓN:
   Los números corresponden al traste de la guitarra donde
   se pulsa la cuerda señalada,la letra X significa que no
   se pulsa la cuerda indicada.

   DO  DOm  RE  RE7 MIm  FA  SOL SOLm LAm LA# SI7 SIm
E---0---3----2---2---0----1---3---3----0---1---2---2----
B---1---4----3---1---0----1---3---3----1---3---0---3----
G---0---5----2---2---0----2---0---3----2---3---2---4----
D---2---5----0---0---2----3---0---5----2---3---1---4----
A---3---3----X---X---2----3---2---5----0---1---2---2----
E---X---X----X---X---0----1---3---3----X---X---X---X----

  ____________________________________________________
 |                                                    |
 | Equivalencia de notas sostenidas con notas bemoles |
 |____________________________________________________|
 |                                                    |
 |  DO# = REb  <----> ( Do  sostenido  =  Re  bemol ) |
 |  RE# = MIb  <----> ( Re  sostenido  =  Mi  bemol ) |
 |  FA# = SOLb <----> ( Fa  sostenido  =  Sol bemol ) |
 | SOL# = LAb  <----> ( Sol sostenido  =  La  bemol ) |
 |  LA# = SIb  <----> ( La  sostenido  =  Re  bemol ) |
 |____________________________________________________|


...Aquí les va uno de los últimos éxitos de esta genial banda tropical,
una de los más recientes cumbias del grupo Garras de Amor. Espero que
les guste, los acordes son súper fáciles (por lo menos los del coro).
  Cuídense, saludos desde Lo Prado.


               +EN MEMORIA DE ANDREITA SUSANA MUÑOZ ALARCÓN+
                   (*Abril 20,1989 - Diciembre 10,2004+)
               *Que el Señor te tenga consigo hermanita mía*

                        *Que el Señor les Bendiga*

ENERO, 2008                                                   ...RODRIGO
========================
=====================baladistacancionero@
Suggest correction
Give kudos to tab author, rate the tab!
1 2 3 4 5
comments
print report bad tab
guest
You may want to rate the tab now too:
select rating
Wanna post a correction for this tab? Suggest correction