Oops, an error
Loading. Please wait.

Apasionados Tab

14 views 1 this week
no commentswrite comment
1 2 3 4 5
3 more votes to show rating
add to favorites
launch autoscroll
font size
0
reset
how to read this tab
guitar tuner
×
Best way to learn
"Apasionados"
Autoscroll
slow
fast
+/-
esc
set tempo
stop
=INTRO=
   Bm         G           A       F#
E-------------3--2-0-2-0--0-------2-3-2-0-----
B--0-2-3-3-2-0-------------2-0-3-2-----2-3-0--
G---------------------------------------------
D---------------------------------------------
A---------------------------------------------
E---------------------------------------------

   Bm         G           A   F#   Bm
E-------------3--2-0-2-0--2---0--------
B--0-2-3-3-2-0-------------2---3-2--0--
G---------------------------3----------
D--------------------------------------
A--------------------------------------
E--------------------------------------

     Bm            A                 Bm
E--------------------- -----------------
B--0-3-2-0-3-2-0-0-2-- --2-0-2-0-----0--
G---------------2---2- -2---2---2-0-2---
D--------------------- -----------------
A--------------------- -----------------
E--------------------- -----------------
                    '¡Garras...   ..de Amor!'

      Bm                    A                             Bm
E-------------------------------- ------------------------------
B--12-15-14-12-15-14-12--12-14--- ---14-12--14--12--------12----
G----------------------14-----14- -14-----14------14-12-14------
D-------------------------------- ------------------------------
A-------------------------------- ------------------------------
E-------------------------------- ------------------------------

   F#     F#
E------------
B--7-7-8--7--
G------------
D------------
A------------
E------------

=ESTROFA=
 Bm                 A
 TODO ES PASIÓN Y LOCURA
           G        F#
 CUANDO TE BESO MI AMOR,
 Bm                  A
 TODO ES PASIÓN Y LOCURA
          G         F#
 CUANDO HACEMOS EL AMOR...

=PRECORO=
 Em                Bm
 NUNCA, YO NUNCA PODRÉ OLVIDAR...
F#                 Bm
 LO QUE SIENTO POR TI,
 Em                    Bm
 SÉ QUE TÚ ME AMAS, LO SÉ MI AMOR,
 Em                       F#          A A A A
 NUNCA, NUNCA, NUNCA TE PODRÉ OLVIDAR...

=CORO 1=
  D    A       Em  Bm
 APASIONADOS, ENAMORADOS,
  D    A       Em  Bm
 APASIONADOS, ENAMORADOS,
           G
 CUANDO TE MIRO A LOS OJOS
    Em                F#     A A A A
 TE DIGO TE AMO MI AMOR...
=CORO 2=
  D    A       Em  Bm
 APASIONADOS, ENAMORADOS,
  D    A       Em  Bm
 APASIONADOS, ENAMORADOS,
         G                 Em
 TENERTE MÍA PARA SIEMPRE, YO SERÉ
    F#
 EL DUEÑO DE TU CORAZÓN...

*Se repite los punteos de la INTRO*
*Se repite la ESTROFA*
*Se repite el PRECORO*
*Se repite el CORO 1 y el CORO 2*

=SOLO=
     Bm
E--7-10-9-7-10-9-7-10---7-10-9-7-10-9-7-10---7-10-9-7-10-9-7-10--
B----------------------------------------------------------------
G----------------------------------------------------------------
A----------------------------------------------------------------
D----------------------------------------------------------------
E----------------------------------------------------------------

    F#
E---6-7-9-10-
B------------
G------------
D------------
A------------
E------------

     Bm
E--7-10-9-7-10-9-7-10---7-10-9-7-10-9-7-10---7-10-9-7-10-9-7-10--
B----------------------------------------------------------------
G----------------------------------------------------------------
A----------------------------------------------------------------
D----------------------------------------------------------------
E----------------------------------------------------------------

   A  A  A  A
E---------------
B--10-10-10-10--
G---------------
D---------------
A---------------
E---------------

*Se repite el CORO 2*

=FINAL=

     Bm
E--7-10-9-7-10-9-7-10---7-10-9-7-10-9-7-10---7-10-9-7-10-9-7-10--
B----------------------------------------------------------------
G----------------------------------------------------------------
A----------------------------------------------------------------
D----------------------------------------------------------------
E----------------------------------------------------------------

   F#
E--6-7-9-10--
B------------
G------------
D------------
A------------
E------------

     Bm
E--7-10-9-7-10-9-7-10---7-10-9-7-10-9-7-10---7-10-9-7-10-9-7-10--
B----------------------------------------------------------------
G----------------------------------------------------------------
A----------------------------------------------------------------
D----------------------------------------------------------------
E----------------------------------------------------------------

   F# F# F# F#  Bm Bm
E--6--6--6--6---7--7--
B--7--7--7--7---7--7--
G---------------------
D---------------------
A---------------------
E---------------------


============================= F I N ===============================

  Aquí les van algunas indicaciones básicas para tocar la canción:
 _________________________________________________________________
|                             |                                   |
|   C L A V E                 |         C U E R D A S             |
|                             |                                   |
|    C = DO                   |          E-A-D-G-B-E              |
|    D = RE                   |          | | | | | |   ACORDES    |
|    E = MI                   |          X-2-4-4-3-2 = Bm         |
|    F = FA                   |          X-0-2-2-2-0 = A          |
|    G = SOL                  |          3-2-0-0-3-3 = G          |
|    A = LA                   |          2-4-4-3-2-2 = F#         |
|    B = SI                   |          0-2-2-0-0-0 = Em         |
|                             |          X-X-0-2-1-2 = D          |
|    m = Acorde menor         |                                   |
|    # = Acorde sostenido     |                                   |
|_____________________________|___________________________________|
|                                                                 |
|             Ejemplo 1: Bm es igual a 'SI menor'                 |
|             Ejemplo 1: F# es igual a 'FA sostenido'             |
|_________________________________________________________________|
|                                                                 |
|      Para que el tema suene la raja te recomiendo ejecutar      |
|  el acorde y los cambios de  acorde en el mismo momento en que  |
|  aparecen,por eso logré que la ubicación de cada acorde sea la  |
| precisa, tal como puse los acordes sobre cada sílaba de estrofa |
|   y sobre cada punteo, así te será más fácil ubicar el acento   |
| musical y además, obtendrás la armonía y melodía similares a la |
|             vesión original de Garras, disfrútala.              |
|_________________________________________________________________|

'Hola soy un baladista aficionado, me llamo Rodrigo y soy chileno,
espero que vacilen harto esta cumbia, pues todos los temas de este
grupo son la raja, además va dedicado a todas las parejas que se
aman apasionadamente al igual que yo con mi guagua que no voy decir
su nombre que termina con 'a' y es virgo... sólo disfruten el tema,
porque para eso estuve hasta las 4 de la mañana sacando los punteos
y por cualquier duda que tengan escríbanme a mi correo electrónico
rodrymicky@ y un saludo pal Marco,Jose,Simón,Aarón,Yoi,
Carolina,Yesleine,Claudia,Laura,Karen,Jesús,al LordCaoz,al Roberto,
al KuroChan,a la Denisse,al Maluto, a mi primo Jonathan, a su grupo
los Sweet Revenge, a la Jocelyn y un besito rico para mi guagua...
te quiero mucho bebé.'

            +EN MEMORIA DE ANDREA SUSANA MUÑOZ ALARCÓN+
               (*Abril 20,1989 - Diciembre 10,2004+)
         'Que el Señor te tenga en su gloria hermanita mía'

                    'Que el Señor les Bendiga'
Marzo 10, 2005                               ...El último romántico
=========================
Suggest correction
Give kudos to tab author, rate the tab!
1 2 3 4 5
comments
print report bad tab
guest
You may want to rate the tab now too:
select rating
Wanna post a correction for this tab? Suggest correction