Oops, an error
Loading. Please wait.

Bailalo Tab

version 1
version 1

Whole song

278 views 6 this week
no commentswrite comment
1 2 3 4 5
3 more votes to show rating
add to favorites
launch autoscroll
font size
0
reset
how to read this tab
guitar tuner
×
Best way to learn
"Bailalo"
Autoscroll
slow
fast
+/-
esc
set tempo
stop
ESTA ES LA INTRO
DE GUITARRA BAJO Y TECLADO

E---------------------------------------------------------------
B---------------------------------------------------------------
G---------------------------------------------------------------
D--------------------------------------------------------3-3----
A----------------------3-3-------4-5-5-3-3-5-3-3-5-3-5-5----5v--
E-5-5-3-3-5-3-3-5-3-5-5---5v--3-5-------------------------------

E----------------------------------------------------------------
B----------------------------------------------------------------
G----------------------------------------------------------------
D-------6-6-9--9-6----------6-6-9-6------------------------------
A-7-7-7-----------7---7-7-7---------7----------------------------
E----------------------------------------------------------------

DESPUES LA GUITARRA MARCA (*)

        Am
E---------------------
B---------------------
G---4-5-5-4-5-4-------
D--7------------7-----
A-7--------------7----
E---------------------
        Am
E---------------------
B---------------------
G---4-5-5-4-5-4-5-4---
D--7---------------7--
A-7-----------------7-
E---------------------
        Dm
E---------------------
B---5-6-6-5-6-5-------
G--7------------7-----
D-7--------------7----
A---------------------
E---------------------
        Dm
E---------------------
B---5-6-6-5-6-5-6-5---
G--7---------------7--
D-7-----------------7-
A---------------------
E---------------------

AQUI MARCA EL BAJO CON LAS
TIMBALETAS CON CORTES
        E
E---------------------
B---------------------
G---------------------
D---------------------
A-7-7--7---7----------
E--7--7--7------------

DESPUES DE NUEVO LA GUITARRA (*)

        Am
E----------------------------
B-----12-13-13-12-13-12------
G---14-----------------14----
D-14---------------------14--
A----------------------------
E----------------------------
         Am
E----------------------------------
B-----12-13-13-12-13-12-13-12------
G---14-----------------------14----
D-14---------------------------14--
A----------------------------------
E----------------------------------

         Dm
E-----12-13-13-12-13-12------
B---15-----------------15----
G-14---------------------14--
D----------------------------
A----------------------------
E----------------------------

          Dm
E-----12-13-13-12-13-12-13-12--------
B---15-----------------------15------
G-14---------------------------14----
D------------------------------------
A------------------------------------
E------------------------------------

DESPUES EL BAJO CON LA TIMBALETA CON CORTES

E-----------------------------
B-----------------------------
G-----------------------------
D-----------------------------
A-7-7--7--7-------------------
E--7--7--7--------------------

AHORA ENTRA LA VOZ

VERSO:

 Am
Yo miraba que tu cuerpo se movia
             G               G,G#,Am
con el ritmo bailalo,bailalo
 Am
tu cintura va girando al ritmo de
                      G                   G,G
esta cumbia muy especial yo quiero bailar


PRE-CORO:

 Dm
Y tu me vuelves loco loco

cuando bailas esta cumbia
 Am           E
bailalo para miiiii

CORO:

       Dm
Por eso baila,baila conmigo
 Am
baila baila mi amor
 E
quiero que estes conmigo
         Am
esta noche los dos
 Dm
baila baila conmigo
 C
dame tu corazon
       E
porque si no es contigo
               Am
yo me muero de amor

DESPUES VUELVE ARRIBA DONDE PARTE LA GUITARRA (*)
Y TODA LA CANCION DE NUEVO
Y AHI VIENE EL SOLO QUE ES ASI:


E--------------------------5-5-5--------5-5-5-------12-12-12-10-------12-12-12-10--------
B-8-8-8-6-5----8-8-8-6-5---------8-6-5-------8-6-5--------------12-9--------------12-9---
G-----------7-----------7----------------------------------------------------------------
D----------------------------------------------------------------------------------------
A----------------------------------------------------------------------------------------
E----------------------------------------------------------------------------------------

E------------9----9-10-10sl12---
B-10-9-10-12---12---------------
G-------------------------------
D-------------------------------
A-------------------------------
E-------------------------------
DESPUES SE REPITE EL CORO DE NUEVO  Y SE REPITE EL SOLO PERO CON VARIACIONES

E--------------------------5-5-5-------5-5-5--------12-12-12-10-----12-12-12-10-----------
B-8-8-8-6-5---8-8-8-6-5----------8-6-5------8-6-5--------------12-9-------------12-9------
G-----------7-----------7-----------------------------------------------------------------
D-----------------------------------------------------------------------------------------
A-----------------------------------------------------------------------------------------
E-----------------------------------------------------------------------------------------

E-0h5-0h7-0h8-0h10-0h12----------
B--------------------------------
G--------------------------------
D--------------------------------
A--------------------------------
E--------------------------------


E------------------------5-5-5--------5-5-5--------12-12-12-10-----12-12-12-10-------------
B-8-8-8-6-5--8-8-8-6-5---------8-6-5-------8-6-5--------------12-9------------12-9---------
G----------7----------7--------------------------------------------------------------------
D------------------------------------------------------------------------------------------
A------------------------------------------------------------------------------------------
E------------------------------------------------------------------------------------------

E-----------------------
B-----------------------
G----5--5-5-6-----------
D-7-7---------7---------
A-----------------------
E-----------------------

AHI SE VA ESTA CANCION
Suggest correction
Give kudos to tab author, rate the tab!
1 2 3 4 5
comments
print report bad tab
guest
You may want to rate the tab now too:
select rating
Wanna post a correction for this tab? Suggest correction